Oops, an error
Loading. Please wait.
We have Chord Pro version of Mmm Mmm Mmm Mmm.
It's the closest thing you can get to the original song and it has interactive parts. Check out the tab »
×
469 views 1 this week
no commentswrite comment
1 2 3 4 5
1 last vote to show rating
add to favorites
×
Save as Personal and add changes to this tab that will be seen only by you. Learn more ›
×
You can save this tab as Personal to edit and correct it or add notes. All changes will be seen only by you. Learn more »
launch autoscroll
font size
0
reset
guitar tuner
backing track
0:00
0:00
edit
Autoscroll
slow
fast
+/-
esc
set tempo
stop
Author
Difficulty
Tempo : 93 bpm 
Tuning : EADG

Intro: Guitar / piano
G-|------------------|------------------|-
D-|------------------|------------------|-
A-|------------------|------------------|-
E-|------------------|------------------|-


Verse 1:  00:10
G-|------------------|------------------|-------------------|------------------|-
D-|------------------|------------------|-------------------|------------------|-
A-|------------------|------------------|-------------------|------------------|-
E-|------------------|------------------|-------------------|------------------|-
'Once there was this kid who
Got into an accident and couldn't come to school
But when he finally came back
His hair had turned from black into bright white
He said that it was from when 
The car had smashed so hard

Chorus 1: 00:44                                                   00:51 (Bass starts)
G-|------------------|------------------||-------------------|------------------|-
D-|------------------|------------------||-------------------|------------------|-
A-|------------------|------------------||-------------------|------------------|-
E-|------------------|------------------||-------------------|---4~---4--6------|-
'Mmm Mmm Mmm Mmm


Verse 2: 00:54
G-|------------------|------------------|-------------------|--
D-|------------------|------------------|-------------------|-
A-|-0-3------6---6---|------6--6--------|--5-6-5-3-1--------|-
E-|------6--6-----6--|-3-4------6-------|------------4------|-
'Once there was this girl who
Wouldn't go and change with the girls in the change room
G-|------------------|------------------|-------------------|------------------|-
D-|------------------|------5-----------|-------------------|------------------|-
A-|-----------6--6---|-7--7-----5-6-----|-7---7-------------|------------------|-
E-|-4---6---6------6-|------------------|-------5---4-5-----|-7---4-5----------|-
But when they finally made her
They saw birthmarks all over her body
G-|------------------|------------------|-------------------|-
D-|------------------|------------------|-------------------|-
A-|------------------|------------------|-5~~~--------------|-
E-|-5---5-7----------|-7--7-9~~--10-11--|-------------------|-
She couldn't quite explain it
They'd always just been there


Chorus 2:  01:28 
G-|------------------|------------------||-------------------|------------------|-
D-|----------3-------|-----------3------||-------------------|------------------|-
A-|-------5----------|--------5---------||-------------------|------------------|-
E-|-3--5-------------|-3--5-------------||---4~---4--6-------|---4~---4--6------|-
Mmm Mmm Mmm Mmm

G-|------------------|------------------||------------3------|----------5-3-----|-
D-|-----------3------|-----------3--/---||-5-6-5-3--1--------|-5-6-5-3----------|-
A-|-------5----------|--------5---------||-------------------|----------------0-|-
E-|-3--5-------------|-3--5-------------||-------------------|------------------|-
Mmm Mmm Mmm Mmm


Bridge:  01:48 
G-|------------------|------------------|-------------------|------------------|-
D-|------------------|------------------|-------------------|------------------|-
A-|-------5--8--6----|--6---------------|---------5--8--6---|--6---------------|-
E-|-4--6-------------|-----8--6---------|-4--6--------------|-----8--6---------|-
'But both girl and boy were glad
'Cause one kid had it worse than that

G-|------------------|-8--10-12---------|-
D-|--5-6--5-6-----8--|------------------|-
A-|------------------|------------------|-
E-|------------------|------------------|-


Verse 2:  02:02 
G-|------------------|------------------|-------------------|--
D-|------------------|------------------|-------------------|-
A-|------------------|------------------|--5-6-5-3-1--------|-
E-|------------------|------------------|------------4------|-
'Cause then there was this boy whose
Parents made him come directly home right after school
G-|------------------|------------------|-------------------|------------------|-
D-|------------------|------5-----------|-------------------|------------------|-
A-|-----------6--6---|-7--7-----5-6-----|-7---7-------------|------------------|-
E-|-4---6---6------6-|------------------|-------5---4-5-----|-7---4-5----------|-
And when they went to their church
They shook and lurched all over the church floor
G-|------------------|------------------|-------------------|-
D-|------------------|------------------|-------------------|-
A-|------------------|------------------|-5~~~----5-3-------|-
E-|-5---5-7----------|-7--7-9~~--10-11--|--------------6-5--|-
He couldn't quite explain it
They'd always just gone there


Chorus 2:  02:36 
G-|------------------|------------------||-------------------|------------------|-
D-|----------3-------|-----------3------||-------------------|------------------|-
A-|-------5----------|--------5---------||-------------------|------------------|-
E-|-3--5-------------|-3--5-------------||---4~---4--6-------|---4~---4--6------|-
Mmm Mmm Mmm Mmm

G-|------------------|------------------||------------3------|----------5-3-----|-
D-|-----------3------|-----------3--/---||-5-6-5-3--1--------|-5-6-5-3----------|-
A-|-------5----------|--------5---------||-------------------|----------------0-|-
E-|-3--5-------------|-3--5-------------||-------------------|------------------|-
Mmm Mmm Mmm Mmm


Finale  :  02:57 
G-|------------------|------------------|-------------------|------------------|-
D-|------------------|------------------|-------------------|------------------|-
A-|-----5----8--6----|--6---------------|---------5--8--6---|--6---------------|-
E-|------------------|-----8--6---------|-4--6--------------|-----8--6---------|-
Aah... Aah... Aah... Aah...
G-|----------------8-|------------------|-
D-|-5-6---5-6---8----|------------------|-
A-|------------------|------------------|-
E-|------------------|-4--6-------------|-

G-|------------------|------------------|-------------------|------------------|-
D-|------------------|------------------|-------------------|------------------|-
A-|-----5----8--6----|--6---------------|---------5--8--6---|--6---------------|-
E-|------------------|-----8--6---------|-4--6--------------|-----8--6---------|-
Aah... Aah... Aah... Aah...
G-|------------------|-8--10-12---------|-
D-|--5-6--5-6-----8--|------------------|-
A-|------------------|------------------|-
E-|------------------|------------------|-

Repeat till fade out


End: 03:53



Tablature Legend ----------------  
| S  slap 
| P  pop 
| x  mute note 
| /  slide up 
| \  slide down 
| h  hammer-on 
| p  pull-off 
| g  grace note 
| ~  vibrato 
| ^  brush up

            
            
Suggest correction
Creating personal tab
Creating personal tab
You can edit any tab online and save it as your Personal.

You can edit, replace or remove any tab part or add personal notes – all changes will be seen only by you.

Personal tabs can be accessed anytime from any device, even offline.
Learn more »
Give kudos to tab author, rate the tab!
1 2 3 4 5
comments
print report bad tab
guest
You may want to rate the tab now too:
select rating
Wanna post a correction for this tab? Suggest correction