Oops, an error
Loading. Please wait.

Do They Owe Us A Living tab

version 1
version 1

Whole song

by Crass
2,810 views 1 this week
2 commentsread comments
1 2 3 4 5
1 last vote to show rating
add to favorites
×
Save as Personal and add changes to this tab that will be seen only by you. Learn more ›
×
You can save this tab as Personal to edit and correct it or add notes. All changes will be seen only by you. Learn more »
launch autoscroll
font size
0
reset
how to read this tab
guitar tuner
edit
Autoscroll
slow
fast
+/-
esc
set tempo
stop
Author
Difficulty
-------------------------------------------------------------------------------
                   DO THEY OWE US A LIVING? - Crass
-------------------------------------------------------------------------------
Tabbed by:DFFBoston
Tuning: Standard
From the album: The Feeding of 5000
CORRECTED!

1st Verse
e|------------------------------------------------------------------------|
B|----------------7-----------------7--------7--------7-----------------7-|
G|-7777777777777--7--7777777777777--7--77777-7--77777-7--7777777777777--7-|
D|-7777777777777--5--7777777777777--5--77777-5--77777-5--7777777777777--5-|
A|-5555555555555-----5555555555555-----55555----55555----5555555555555----|
E|------------------------------------------------------------------------|

e|-------------------------------------------------------------------|
B|-----------------------------7-----------------7-----------------7-|
G|-77777777777777777777777777--7--7777777777777--7--7777777777777--7-|
D|-77777777777777777777777777--5--7777777777777--5--7777777777777--5-|
A|-55555555555555555555555555-----5555555555555-----5555555555555----|
E|-------------------------------------------------------------------|

Chorus

e|--------------------|
B|--------------------|
G|-7-775-551010109-99-|
D|-7-775-551010109-99-| 3X
A|-5-553-338-8-8-7-77-|
E|--------------------|

e|--------------------|
B|--------------------|
G|-7-775-55---------7-|
D|-7-775-55---------7-| 1X
A|-5-553-33---------5-|
E|--------------------|

Other Verses
e|-----------------------------------------------------------------------|
B|----------------7-----------------7----------------7-----------------7-|
G|-7777777777777--7--7777777777777--7--7777777777777-7--7777777777777--7-|
D|-7777777777777--5--7777777777777--5--7777777777777-5--7777777777777--5-|
A|-5555555555555-----5555555555555-----5555555555555----5555555555555----|
E|-----------------------------------------------------------------------|

Order
-----
1st Verse
Chorus
Other Verses
Chorus
Other Verses
Chorus
Other Verses
Chorus

-----------------------------------------------------------------------------
Lyrics:
Fuck the politically minded, here's something I want to say,
About the state of nation, the way it treats us today.
At school they give you shit, drop you in the pit,
You try, you try, you try to get out, but you can't because they've fucked you about.
Then you're a prime example of how they must not be,
This is just a sample of what they've done to you and me.

Do they owe us a living?
Of course they do, of course they do.
Owe us a living?
Of course they do, of course they do.
Owe us a living?
OF COURSE THEY FUCKING DO.

Don't want me anymore, cos I threw it on the floor.
Used to call me sweet thing, I'm nobody's plaything,
And now that I am different, 'd love to bust my head,
You'd love to see me cop-out, 'd love to see me dead.

Do they owe us a living?
Of course they do, of course they do.
Owe us a living?
Of course they do, of course they do.
Owe us a living?
OF COURSE THEY FUCKING DO.

The living that is owed to me I'm never going to get,
They've buggered this old world up, up to their necks in dept.
They'd give you a lobotomy for something you ain't done,
They'll make you an epitomy of everything that's wrong.

Do they owe us a living?
Of course they do, of course they do.
Owe us a living?
Of course they do, of course they do.
Owe us a living?
OF COURSE THEY FUCKING DO.

Don't take any notice of what the public think,
They're so hyped up with T.V., they just don't want to think.
They'll use you as a target for demands and for advice,
When you don't want to hear it they'll say you're full of vice.

Do they owe us a living?
Of course they do, of course they do.
Owe us a living?
Of course they do, of course they do.
Owe us a living?
OF COURSE THEY FUCKING DO.

            
            
Suggest correction
Creating personal tab
Creating personal tab
You can edit any tab online and save it as your Personal.

You can edit, replace or remove any tab part or add personal notes – all changes will be seen only by you.

Personal tabs can be accessed anytime from any device, even offline.
Learn more »
Give kudos to tab author, rate the tab!
1 2 3 4 5
comments
print report bad tab
2 comments total.
0 reply
radeloise 10 Oct 24, 2015 06:32 AM, edited at 10:32 am

sounds completely off

0 reply
tony64 20 Aug 04, 2017 07:30 AM

Who cares?,certainly not Crass back in the day. ;-)

guest
You may want to rate the tab now too:
select rating
Wanna post a correction for this tab? Suggest correction