Oops, an error
Loading. Please wait.

Drowning tab

version 2
version 2
781 views 1 this week
3 commentsread comments
1 2 3 4 5
x 3
add to favorites
×
Save as Personal and add changes to this tab that will be seen only by you. Learn more ›
×
You can save this tab as Personal to edit and correct it or add notes. All changes will be seen only by you. Learn more »
launch autoscroll
font size
0
reset
how to read this tab
guitar tuner
edit
Autoscroll
slow
fast
+/-
esc
set tempo
stop
Artist - Crazy Town
Album  - Darkhouse
Title  - Drownin´

TAB-Explanation

pm - palm mute
h  - hammer on
p  - pull off


Intro/Chorus

[...............Intro repeat twice....................]
[...............Chorus................................]

                    Guitar I                                  Guitar II (2nd time)

------------------------------------------------------|----------------------------------|
------------------------------------------------------|--17------------------------------|
--------------(6-66-6666-66--9-9-99898)---------------|-------16-13--11h13--11h13h15-13--|
-4-4--4444-4---6-66-6666-66--9-9-99898--4-44-4444-44--|----------------------------------|
-4-4--4444-4---4-44-4444-44--7-7-77676--4-44-4444-44--|----------------------------------|
-2-2--2222-2----------------------------2-22-2222-22--|----------------------------------|
      pm..          pm..         pm...       pm.. 

        

[..........Refrain repeat twice..............[only 1st time]

--------------------4------------------------|-------------|
------5p4h5p4h5--4h5-5-4h5p4h5---5p4h5p4h----|--7-5--------|
----6--------------------------6----------4--|-------------|
---------------------------------------------|-------------|
---------------------------------------------|-------------|
---------------------------------------------|-------------|.


Listen to the soloparts, it´s really easy, but do it by yourself,
so you will leran to hear the right tones ;)
Tabs (c) by Sorrow

            
            
Suggest correction
Creating personal tab
Creating personal tab
You can edit any tab online and save it as your Personal.

You can edit, replace or remove any tab part or add personal notes – all changes will be seen only by you.

Personal tabs can be accessed anytime from any device, even offline.
Learn more »
Give kudos to tab author, rate the tab!
1 2 3 4 5
comments
print report bad tab
3 comments total.
0 reply
Sorrow 10 Jan 23, 2003 07:00 PM

Artist - Crazy Town
Album - Darkhouse
Title - Drownin´


TAB-Explanation

pm - palm mute
h - hammer on
p - pull off


Intro/Chorus

[...............Intro repeat twice....................]
[...............Chorus................................]

Guitar I Guitar II (2nd time)

------------------------------------------------------|----------------------------------|
------------------------------------------------------|--17------------------------------|
------------------------------------------------------|-------16-13--11h13--11h13h15-13--|
-4-4--4444-4---6-66-6666-66--9-9-99898--4-44-4444-44--|----------------------------------|
-4-4--4444-4---4-44-4444-44--7-7-77676--4-44-4444-44--|----------------------------------|
-2-2--2222-2---4-44-4444-44-------------2-22-2222-22--|----------------------------------|
pm.. pm.. pm... pm..



[..........Refrain repeat twice..............[only 1st time]

--------------------4------------------------|-------------|
------5p4h5p4h5--4h5-5-4h5p4h5---5p4h5p4h----|--7-5--------|
----6--------------------------6----------4--|-------------|
---------------------------------------------|-------------|
---------------------------------------------|-------------|
---------------------------------------------|-------------|


Listen to the soloparts, it´s really easy, but do it by yourself,
so you will leran to hear the right tones ;)
Tabs (c) by Sorrow

0 reply
roumen 130 Jan 26, 2003 07:00 PM

wtf, who gave this guy a 5 star rating, probably himself, the intro/chorus doesnt sound right and other things
if i may say so my tab is much better and has much worse rating
:'(

0 reply
andrewbiles 4,785 Mar 10, 2003 07:00 PM

"Listen to the soloparts, it´s really easy, but do it by yourself,
so you will leran to hear the right tones ;)"
what a lazy git

guest
Wanna post a correction for this tab? Suggest correction