Oops, an error
Loading. Please wait.

Colors tab

43 views 3 this week
no commentswrite comment
1 2 3 4 5
3 more votes to show rating
add to favorites
×
Save as Personal and add changes to this tab that will be seen only by you. Learn more ›
×
You can save this tab as Personal to edit and correct it or add notes. All changes will be seen only by you. Learn more »
launch autoscroll
font size
0
reset
how to read this tab
guitar tuner
edit
Autoscroll
slow
fast
+/-
esc
set tempo
stop
Tab of CrazyEightyEights cover of 'Colors' originally by Halsey

[Verse](x8) Guitar 1 - Clean:
"Your little brother never..."
E|-----9-----7-----5-----0--|
B|--7-----5-----2-----3-----|
G|--------------------------|
D|--------------------------|
A|--------------------------|
D|--------------------------|

[Verse] Guitar 2:
"You're drippng like a saturated sunrise..."
E|--------------------------------|
B|--------------------------------|
G|-----------2--------2--------2--|
D|--4--------2-----0--2-----2--2--|
A|--4-----4--------0--------2-----|
D|--4-----4--------0--------2-----|

[Chorus](x2) Guitar 2:
"Everything is Blue..."
E|-----------------------|
B|-----------------------|
G|-----------------------|
D|--0-----2-----4-----2--|
A|--0-----2-----4-----2--|
D|--0-----2-----4-----2--|

[Chorus] Guitar 1 - Tremolo Picked:
"Everything is Blue..."
E|--17--17--16--17--16--16--16--16--|--17--17--16--16--17--17--16--16--|
B|----------------------------------|----------------------------------|
G|----------------------------------|----------------------------------|
D|----------------------------------|----------------------------------|
A|----------------------------------|----------------------------------|
D|----------------------------------|----------------------------------|

[Chorus Continued] Guitar 1 - Tremolo Picked:
"Everything is Grey.."
E|--12--12--12--12--12--12--12--12--|--17--17--16--16--17--17--16--16--|
B|----------------------------------|----------------------------------|
G|----------------------------------|----------------------------------|
D|----------------------------------|----------------------------------|
A|----------------------------------|----------------------------------|
D|----------------------------------|----------------------------------|

[Verse 2](x8) Guitar 1 - Clean:
"You Were A Vision..."
E|-----9-----7-----5-----0--|
B|--7-----5-----2-----3-----|
G|--------------------------|
D|--------------------------|
A|--------------------------|
D|--------------------------|

[Verse 2] Guitar 2 - Palm-Muted Chords:
"You're Dripping Like A Saturated Sunrise..."
E|-----------------------|
B|-----------------------|
G|-----------------------|
D|--4-----7-----0-----2--|
A|--4-----7-----0-----2--|
D|--4-----7-----0-----2--|

[Verse 2] Guitar 1:
          v"Oh You're Ripped At Every Edge..."  
E|--------|--------------------------|-----------------|
B|--------|--------------------------|-----------------|
G|--1--2--|--6--6--6--6--1--1--2--2--|--6--6--6--6--1--|
D|--2--2--|--7--7--7--7--2--2--2--2--|--7--7--7--7--2--|
A|--------|--------------------------|-----------------|
D|--------|--------------------------|-----------------|
 ^Pickup Riff (Every written chord is worth four 8th notes)

[Chorus](x2) Guitar 2:
"Everything is Blue..."
E|-----------------------|
B|-----------------------|
G|-----------------------|
D|--0-----2-----4-----2--|
A|--0-----2-----4-----2--|
D|--0-----2-----4-----2--|

[Chorus] Guitar 1 - Tremolo Picked:
"Everything is Blue..."
E|--17--17--16--17--16--16--16--16--|--17--17--16--16--17--17--16--16--|
B|----------------------------------|----------------------------------|
G|----------------------------------|----------------------------------|
D|----------------------------------|----------------------------------|
A|----------------------------------|----------------------------------|
D|----------------------------------|----------------------------------|

[Chorus Continued] Guitar 1 - Tremolo Picked:
"Everything is Grey.."
E|--12--12--12--12--12--12--12--12--|--17--17--16--16--17--17--16--16--|
B|----------------------------------|----------------------------------|
G|----------------------------------|----------------------------------|
D|----------------------------------|----------------------------------|
A|----------------------------------|----------------------------------|
D|----------------------------------|----------------------------------|

[Breakdown] Guitar 2:
"You were red..."
E|--------------------------------------------------------------|
B|--------------------------------------------------------------|
G|--2--------------2--2-----6--2-----2--2--2-----2--2-----2--2--|
D|--2-----x--x-----2--2-----6--2-----2--2--2-----2--2-----2--2--|
A|--0-----x--x-----0--0-----4--0-----0--0--0-----0--0-----0--0--|
D|--0-----x--x-----0--0-----------------------------------------|

[Breakdown] Guitar 1:
"You were red.."
E|--------------|
B|--------------|
G|--1--1--1--2--|
D|--2--2--2--2--|
A|--------------|
D|--------------|
(Not exact but just fiddle with these chords)

[Reprise] Guitar 2:
"Everything is Blue..."
E|-----------------------------|
B|-----------------------------|
G|-----2--------1--------------|
D|-----2--------2-----4-----2--|
A|--0--------2--------4-----2--|
D|--0--------2--------4-----2--|

[Reprise] Guitar 1 - Tremolo Picked:
"And it's Blue.."
E|--17--17--16--16--17--17--16--16--|
B|----------------------------------|
G|----------------------------------|
D|----------------------------------|
A|----------------------------------|
D|----------------------------------|

[Chorus] Guitar 2:
"Everything is Blue..."
E|-----------------------|
B|-----------------------|
G|-----------------------|
D|--0-----2-----4-----2--|
A|--0-----2-----4-----2--|
D|--0-----2-----4-----2--|


[Chorus Continued] Guitar 1 - Tremolo Picked:
"Everything is Grey.."
E|--12--12--12--12--12--12--12--12--|--17--17--16--16--17--17--16--16--|
B|----------------------------------|----------------------------------|
G|----------------------------------|----------------------------------|
D|----------------------------------|----------------------------------|
A|----------------------------------|----------------------------------|
D|----------------------------------|----------------------------------|


[Bridge/Outro](x2) Guitar 2:
"Everything is Blue..."
E|--------------------------|
B|--------------------------|
G|--------------------------|
D|--0-----2-----4-----6--2--|
A|--0-----2-----4-----7--2--|
D|--0-----2-----4-----6--2--|

[Bridge/Outro] Guitar 1 - Tremolo Picked:
"Everything is Blue..."
E|--17--17--16--17--16--16--16--16--|--17--17--16--16--17--17--16--16--|
B|----------------------------------|----------------------------------|
G|----------------------------------|----------------------------------|
D|----------------------------------|----------------------------------|
A|----------------------------------|----------------------------------|
D|----------------------------------|----------------------------------|

[Bridge/Outro] Guitar 1 - Tremolo Picked:
"Everything is Grey.."
E|--12--12--12--12--12--12--12--12--|--17--17--16--16--17--17--16--16--|
B|----------------------------------|----------------------------------|
G|----------------------------------|----------------------------------|
D|----------------------------------|----------------------------------|
A|----------------------------------|----------------------------------|
D|----------------------------------|----------------------------------|

[End-On] Both Guitars:
E|-----|
B|--5--|
G|--4--|
D|--2--|
A|--0--|
D|--0--|

***************

x   Dead Note

***************

            
            
Suggest correction
Creating personal tab
Creating personal tab
You can edit any tab online and save it as your Personal.

You can edit, replace or remove any tab part or add personal notes – all changes will be seen only by you.

Personal tabs can be accessed anytime from any device, even offline.
Learn more »
Give kudos to tab author, rate the tab!
1 2 3 4 5
comments
print report bad tab
guest
You may want to rate the tab now too:
select rating
Wanna post a correction for this tab? Suggest correction