Oops, an error
Loading. Please wait.
We have an official Crossroads tab made by UG professional guitarists. Check out the tab »
×
by Cream
74,839 views 105 this week
9 commentsread comments
1 2 3 4 5
x 30
add to favorites
×
Save as Personal and add changes to this tab that will be seen only by you. Learn more ›
×
You can save this tab as Personal to edit and correct it or add notes. All changes will be seen only by you. Learn more »
launch autoscroll
font size
0
reset
guitar tuner
backing track
0:00
0:00
edit
Autoscroll
slow
fast
+/-
esc
set tempo
stop
Author
Unregistered
    1     2  ...                                                               
G|-----------------------|-----------------------|----------------------|
D|----7----7----5--------|-----7----7------------|----7----7------------|
A|------------------x-3b-|---------------3b---3b-|--------------3----3--|
E|-----------------------|--5--------------------|----------------------|

G|------------------------|-----7----7--7p0----------|--------------------------|
D|-----7--5--7------------|-----------------5--3b----|--------------------------|
A|----------------3-------|--5--------------------0--|--5--5--3--5--5-----------|
E|--5------------------5--|--------------------------|-----------------2--3--4--|


G|----------------------|--------------------------|-------9----9p0------9-------|
D|-----7----7-----------|-----7--5--7----7--7p0----|-----------------------------|
A|-------------------3b-|--------------------------|--7--7----7-----7--7---7--6--|
E|--5-------------------|--5--------------------8--|-----------------------------|


G|-----------------------|--------------------------|--------------------------|
D|-----------------------|-----7--5--7---5-7--5-----|-----7--5--7---5-7--5-----|
A|--5--------------------|-----------------------3b-|-----------------------3b-|
E|---------2--2--3----4--|--5-----------------------|--5-----------------------|


G|--------------------------|-----7--5--7---5-7--5------|
D|-----7--5--7---5-7--5-----|-----------------------5/7-|
A|-----------------------3--|--5------------------------|
E|--5-----------------------|---------------------------|


G|--------------------------|--------------------------|-------------------------|
D|-----7--5--7---5-7--5-----|-----7--5--7---5-7--5-----|-------------------------|
A|--0--------------------3b-|-----------------------3h-|--5--5--5--3h-5--5----3b-|
E|--------------------------|--5-----------------------|-------------------------|


G|--------------------------|--------------------------|
D|--------------------------|-----7--5--7---5-7--5-----|
A|--5--5-5-5--3--5--5----3b-|-----------------------3b-|
E|--------------------------|--5-----------------------|


G|---------------------------|-----9-------------------|
D|-----7--5--7---5-7--5------|-------------------------|
A|----------------------5h7--|--7-------7--7--7--7--8--|
E|--5------------------------|-------------------------|


G|-----11----------9--------|--------------------------|
D|--------------------------|-----7--5--7---5-7--5-----|
A|--9--------9--7-----5--3--|-----------------------3b-|
E|--------------------------|--5-----------------------|


G|--------------------------|--------------------------|
D|-----7--5--7---5-7--5-----|-----7--5--7---5-7--5-----|
A|-----------------------3b-|-----------------------3--|
E|--5-----------------------|--5-----------------------|


G|---------------------------|------------------------|-------------------------|
D|-----5-----5---5--7--------|-----7----7-------------|--7--7--5--7----5p---0---|
A|--5-----5----5-------5--3--|---------------3----3p0-|-----------------------5-|
E|---------------------------|--5---------------------|-------------------------|


G|-----7--5--7---5-7--5-----|-----7--5--7-----5----7/9-|
D|-----------------------3b-|--------------------------|
A|--5-----------------------|--5-----------5-----------|
E|--------------------------|--------------------------|


G|--------------------------|--------------------------|
D|-----7--5--7---5-7--5-----|-----7----7--7p0-5--------|
A|--0--------------------3b-|----------------------7p5-|
E|--------------------------|--5-----------------------|


G|-----9--------------------|--------------------------|-------------------------|
D|--------------------------|--------------------------|-----7--5--7-------------|
A|--7-----7--7--7--7--7--8--|--9--9--9--9--5--5--3--3b-|----------------5--3--3b-|
E|--------------------------|--------------------------|--5----------------------|


G|------------------------|-----14--12--14-------------|
D|-----7----7-------------|----------------------------|
A|---------------3--3--3--|--0----------------0--3--5--|
E|--5---------------------|----------------------------|


G|--------------------------|-------------------------|--------------------------|
D|--------------------------|-----7--5--7-------------|-----7--5--7--------------|
A|--5--5--3--5--5b-5--3-----|----------------3--3-----|----------------5p3-3--5--|
E|-----------------------5--|--5-------------------5--|--5-----------------------|


G|-----7--5--7/-12-----------|-----7--5--7/-12-----------|
D|---------------------------|---------------------------|
A|--5---------------3--3--5--|--5---------------3--3-----|
E|---------------------------|------------------------5--|


G|-------------------------|--------------------------|
D|-----7--5--7-------------|----7--5--7---------------|
A|----------------3b-3b----|--------------5-5--5--7-7-|
E|--5-------------------5--|--------------------------|


G|-----9p7-9p7----------------|-----7p5-7p5-----------------|
D|-------------9--7--5--------|-------------7--5--7p0-------|
A|--7-------------------7--6--|--5--------------------5--3--|
E|----------------------------|-----------------------------|


G|---------------------------|-----------------------|--14\--------------------|
D|-----7--5--7--7p0----------|-----------------------|--------7-------7--------|
A|------------------3--3--3b-|--0--------------------|-------------------3--5--|
E|--5------------------------|-----------0--0--0--0/-|-------------5-----------|


G|----7--5-------7-------16\-|--x------------------------|
D|----------7--7---4--6/-----|-----5h-7--7p5-------5--7--|
A|---------------------------|---------------5--7--------|
E|---------------------------|---------------------------|


G|--------------------------|-----------------------|--------------------------|
D|-----7--5--7--------------|-----------------------|--------------------5--6--|
A|--------------5--3--4--5--|--5--------------------|--5--5--6--6--7--7--------|
E|--5-----------------------|-----2----3----4----5--|--------------------------|


G|--------------------------|--------------------------|------------------------|
D|--7--------------------5--|--7-----------------------|------------------------|
A|--------4--4--5--6--7-----|-----4--4-4-5----6--6--7--|--7------------------0--|
E|-----5--------------------|--------------------------|-------0----0--0--0-----|


G|------------------------|-------------------------------|
D|--------4----5----6--6--|--7--7p5-7p5-------------------|
A|--5--5------------------|-------------7--5p3-----3b-3p0-|
E|------------------------|--------------------5-5--------|


G|---------------------------|-----------7b---7--5-----|
D|---------------------------|-----7--5-------------7--|
A|---------------------------|-------------------------|
E|--5-4-3--0--0--0--2--3--4--|--5----------------------|


G|------------7b---7--5-----|----------7b---7-7-5-----|
D|--7p0-7--5-------------7~-|----7--5--------------7~-|
A|--------------------------|-------------------------|
E|--------------------------|-------------------------|


G|-----------------------------|-----7-7--7-7--7-7--7-7--7-7-|
D|--7~-7p5-7p5-----------------|-----------------------------|
A|-------------7--5--3p0-3--4--|--5--------------------------|
E|-----------------------------|-----------------------------|


G|---7-7--7-7--7-7--7-7--7-8--|--9--8--7--5---------------|
D|----------------------------|--------------7--5-7--5----|
A|----------------------------|------------------------7--|
E|----------------------------|---------------------------|


G|----------------------------|-----9-----9--------------|
D|----------------------------|--------------------------|
A|--5--3b----------5-5-3p0-5--|--7-----7-----7--7--8--9--|
E|--------5--3--5-------------|--------------------------|


G|-----11-----11-------------|---------------------------|
D|---------------------------|-----7--5--7--7p5----------|
A|--9------9--------5--3-----|------------------3b-3b-0--|
E|------------------------5--|--5------------------------|


G|---------------------------|-----14--12--14------------|
D|-----7--5--7--7p0----------|---------------------------|
A|--0---------------3b-3b-0--|--0------------------3--5--|
E|---------------------------|---------------------------|


G|-----7--5--7--7p0-----------|--------------------------|
D|------------------3--3------|-----7--5--7---5-7--5-----|
A|--5--------------------3p0--|--0--------------------3b-|
E|----------------------------|--------------------------|


G|--------------------------|-----7--5--7--7p0-----------|
D|-----7--5--7---5-7--5-----|------------------3--3p0----|
A|-----------------------3b-|--5----------------------5--|
E|--5-----------------------|----------------------------|


G|------7--5--7--7p0----------|--------------------------|
D|----------------------------|-----7--5--7---5-7--5-----|
A|--5p0--------------3--4--0--|--0--------------------3b-|
E|----------------------------|--------------------------|


G|---------------------------|-----9-----9--------9-----|
D|-----7--5--7---5-7--5------|--------------------------|
A|-----------------------7p5-|--7-----7-----7--7-----6--|
E|--5------------------------|--------------------------|


G|-----7----7--------------|--------------------------|
D|-------------------------|-----7--5--7---5-7--5-----|
A|--5----------5--5--3-----|-----------------------3b-|
E|----------------------5--|--5-----------------------|


G|---------------------------|-----14-14-14-14-14--14p12-------------|
D|-----7--5--7---5-7--5------|---------------------------14--12--10--|
A|-----------------------3p0-|--0------------------------------------|
E|--5------------------------|---------------------------------------|


G|------14-14--14-14--14p12-------------|----------------------------|
D|--------------------------14--12--10\-|----7-7--7-7--7p5-----------|
A|--12----------------------------------|------------------7-5-3-----|
E|--------------------------------------|-------------------------5--|


G|---------------------------5--|--7--7p0-5--7--7p0----------|
D|------------5--5/7-7-7-7-7----|-------------------4--5--6--|
A|--3--3b5--7-------------------|----------------------------|
E|------------------------------|----------------------------|


G|--------7--5----5--5--7--|----------------------------|
D|--7--7-------------------|-----6\5----7--7p5-7--5-----|
A|-------------------------|--0------4---------------3--|
E|-------------------------|----------------------------|


G|--------------------------|-----------------------------|
D|-----7--5--7--------------|-----------------------------|
A|----------------5--6-6-7--|--7--x-5-7--7p5-7--7p5-7--6--|
E|--5-----------------------|-----------------------------|


G|--------------------------|--------------------------|
D|--------------------------|--------------------------|
A|--5--5--5--5--5--5--3--3b-|--------4--4--5--5--6--6--|
E|--------------------------|--5--5--------------------|


G|---------9----9--------------|--------------------------|
D|-----------------------------|-----7--5--7--------------|
A|--7-7-7-----7-----7-7-5p3----|--------------5--5--3-----|
E|--------------------------3--|--5--------------------5--|


G|---------------------------|---------------------------|
D|-----7--5--7---------------|-----7--5--7---------------|
A|--------------x-5-5--3-----|--------------x-5-5--3-----|
E|--5---------------------5--|--5---------------------5--|


G|------------------7--5--7--|-----7--5--7---5-7--5-----|
D|-----7--5--7--7p0----------|-----------------------3--|
A|---------------------------|--5-----------------------|
E|--5------------------------|--------------------------|


G|-----7--5--7----7b-7--5--|---------------------------|
D|-------------------------|--7--7--5--7--7p0----------|
A|--5----------------------|------------------3--3b----|
E|-------------------------|------------------------5--|


G|---------------------------|------9--------------9-----|
D|---------------------------|---------------------------|
A|---------------------3--5--|--5/7----7--7--6--7-----7--|
E|--5--5--3--5--5--5p3-------|---------------------------|


G|--------------------------|----------------------------|
D|--------------------------|----------------------------|
A|--4/-5--5--5--4/-5--5--5--|----------------------------|
E|--------------------------|--5--5--5--5-5-5--0-0-3--4--|


G|----9---9\-----9--9-9-9-------|------------------7b-7--5--|
D|-----------x-7----------------|-----7--5--7--7p0----------|
A|--0---------------------0-----|---------------------------|
E|--------------------------3-3-|--5------------------------|


G|--5b-------------7b-7--5--|--5b--------------7b-7--5--|
D|-----7--5--7--------------|-----7--5--7--7p0----------|
A|--------------0-----------|---------------------------|
E|--------------------------|---------------------------|


G|--5b------------------------|------------------------|----------------------|
D|-----7--5--7-7--5-----------|----------4----5--6--7--|-------4----5----6----|
A|------------------7--5-3----|--5----5----------------|--5-------------------|
E|-------------------------5--|------------------------|----------------------|


G|---------------------------|-----------------------|
D|--7---------------5--7-----|-----------------------|
A|-----4--5--6-6-7-----------|-----4----5----6----7--|
E|------------------------5--|--5--------------------|


G|----9/-11---------9/-11-----|-----7/-9--7---5----------|
D|----------------------------|----------------------5/7-|
A|-----------x-7-7---------7--|--5-----------------------|
E|----------------------------|--------------------------|


G|--------------------------|--------------------------|
D|--7--7--5--7---5-7--5-----|-----7--5--7--------------|
A|-----------------------3b-|---------------5-3--3-----|
E|--------------------------|--5--------------------5--|


G|---------------------------|--7--7--7--7--7--7p0-5--5p2-|
D|-----7--5-----7-----7--7p0-|----------------------------|
A|---------------------------|----------------------------|
E|--x--------5-----5---------|----------------------------|


G|--------------------------|--------------------------|
D|-----7--5--7---5-7--5-----|-----7--5--7---5-7--5-----|
A|--0--------------------3b-|-----------------------3b-|
E|--------------------------|--5-----------------------|


G|-----7--7--7--7--7--7--7--|--7--7--7--7--7--7--7--5p2-|
D|--------------------------|---------------------------|
A|--5-----------------------|---------------------------|
E|--------------------------|---------------------------|


G|--------------------------|--------------------------|
D|-----7--5--7---5-7--5-----|-----7--5--7---5-7--5-----|
A|--0--------------------3b-|-----------------------4/-|
E|--------------------------|--5-----------------------|


G|--------------------------|-------------------|
D|--------------------------|-------------------|
A|--7--7--7--7--7--7--7--6--|--5----------------|
E|--------------------------|-------------------|


G|----14p12-14p12-----12--14p0---------|----------|--------------------|
D|----------------14-----------12--10\-|----------|--5/-----------7----|
A|-------------------------------------|----------|--0-----------------|
E|-------------------------------------|----------|--------------------|


G|--------------------||
D|--7----x------------||
A|--------------------||
E|--------------------||



************************************

| x  Dead note
| h  Hammer-on
| p  Pull-off
| b  Bend
| /  Slide up
| \  Slide down
| ~  Vibrato

************************************

            
            
Suggest correction
Creating personal tab
Creating personal tab
You can edit any tab online and save it as your Personal.

You can edit, replace or remove any tab part or add personal notes – all changes will be seen only by you.

Personal tabs can be accessed anytime from any device, even offline.
Learn more »
comments
print report bad tab
9 comments total. Showing first comments.
+2 reply
4string_assasin 581 Apr 28, 2002 08:00 PM

sick tab man this song is so bloody fast

+1 reply
cody wilson 145 Aug 25, 2005 08:00 PM

nice job man,bruce kicks arse,and so do you!fan-bloody-tastic!!!

0 reply
Lydian_Mode 40 Mar 20, 2006 02:35 PM

awesome

guest
Wanna post a correction for this tab? Suggest correction