Oops, an error
Loading. Please wait.
We have an official Crossroads tab made by UG professional guitarists. Check out the tab »
×
by Cream
11,795 views 9 this week
no commentswrite comment
1 2 3 4 5
x 5
add to favorites
×
Save as Personal and add changes to this tab that will be seen only by you. Learn more ›
×
You can save this tab as Personal to edit and correct it or add notes. All changes will be seen only by you. Learn more »
launch autoscroll
font size
0
reset
guitar tuner
backing track
0:00
0:00
edit
Autoscroll
slow
fast
+/-
esc
set tempo
stop
Difficulty
intermediate
Crossroads Bass Tab

Intro :

---------------------------------------------|
---7-7---5-----------------------------------|
--------------5---3---0----------------------|
---------------------------------------------|             x4

----------7--5----------------------------------------------------------|
------------------7-----------------------------------------------------|
----5-----------------5-----5-5---3-3-5---------------------------------|
---------------------------------------------0--2--3--------------------|

------------------------------------------------------------------------|
-------7--7--5------------------7--7---5--------------------------------|
------------------5---3---0-----------------5---3---0-------------------|
------------------------------------------------------------------------|

----------9-9---------9-9-----------------------------------------------|
------------------------------------------------------------------------|
-----7-----------7----------5-------------------------------------------|
----------------------------------0--2---3------------------------------|

-----------------------------------------------------------------------|
----7--7--5--------------------7---5-----------------------------------|
---------------5---3---0-----------------7-----------------------------|
-----------------------------------------------------------------------|

Verse 1


-----------------------------------------------------------------------------|
---------7--5--7-7---------------------------------7---5---7--7--------------|
--------------------5--x---5-5--3-5-3-----------------------------5---3---0--|
---5--------------------------------------5--3-------------------------------|

----------------------------------------------------------------------|
---7--5--7--7---------------------------------------------------------|
------------------5--3----55--3-5-5-35--------------------------------|
---------------------------------------------0-2-3--------------------|

--------------------------------------------------------------|
---7-5-77------------7-5-77-----------------------------------|
------------5-3-0---------------5-3-0-------------------------|
--------------------------------------------------------------|


----------9----------9--------------11--------------------|
----------------------------------------------------------|
---7--7------7--7------7/9---9-9----------5---------------|
----------------------------------------------------------|

--------------------------------------------------------------|
---7-5-77------------7-5-77-----------------------------------|
------------5-3-0---------------5-3-0-------------------------|
--------------------------------------------------------------|


Verse 2 ( same as verse 3 & 4)

---------------------------------7-5-77-------------------------------------|
--------7--5--7-77-5-------------------5--------7--5--7-77-5----------------|
------------------------5-----5------------------------------------5--------|
---5----------------------5------------------5-----------------------5------|

-----------------------------------------------------------------------|
-------7--5-777-5------------------------------------------------------|
---------------------5---------3-3--55--33--53-------------------------|
---5-------------------5----------------------------0-2-3--------------|

---------------------------------------------------------|
-------7-5-777-5----------7-5-777-5----------------------|
--------------------5---------------------5--------------|
---5------------------5--5------------------5------------|

---------9---------9--------------11----------|
----------------------------------------------|
--7-77-----7-77------7/9--9-9--------5--------|
----------------------------------------------|

---------------------------------------------------------|
-------7-5-777-5----------7-5-777-5----------------------|
--------------------5---------------------5--------------|
---5------------------5--5------------------5------------|

Verse 3

---------------------------------7-5-77-------------------------------------|
--------7--5--7-77-5-------------------5--------7--5--7-77-5----------------|
------------------------5-----5------------------------------------5--------|
---5----------------------5------------------5-----------------------5------|

-----------------------------------------------------------------------|
-------7--5-777-5------------------------------------------------------|
---------------------5---------3-3--55--33--53-------------------------|
---5-------------------5----------------------------0-2-3--------------|

---------------------------------------------------------|
-------7-5-777-5----------7-5-777-5----------------------|
--------------------5---------------------5--------------|
---5------------------5--5------------------5------------|

---------9---------9--------------11----------|
----------------------------------------------|
--7-77-----7-77------7/9--9-9--------5--------|
----------------------------------------------|

---------------------------------------------------------|
-------7-5-777-5----------7-5-777-5----------------------|
--------------------5---------------------5--------------|
---5------------------5--5------------------5------------|


Solo 1 ( I split this into two parts as it is easier to learn)

Part 1
---------------7--7-5--7-5------------------------------------------|
----7-------------------------7-5-7-77-5----------------------------|
-------0-3-5---------------------------------7-5-0-2-3-4-5----------|
--------------------------------------------------------------------|

----------------------------------------------------------|
---------------------4-5-5-7--7---------------5--7--------|
--------------5--7-----------------4--5--7----------------|
---0--2--3------------------------------------------------|

---------------------------------------------------|
---------------------------------------4-5-7-------|
---4-5-7----7------7---------5-5-------------------|
-----------------0-------0-------------------------|

----------------------------------------------------------|
---7-77-5-------------------------------------------------|
--------------7--5---5-55--3------------------4-5-7-------|
----------------------------------5-3-5-55-5--------------|

Part 2

-------7-5-7-5------------7-5-7-5----------7-5-7-5-------------------------|
------------------7----------------------------------------7---------------|
---------------------------------------7----------------------5------------|
--5------------------5--5---------------5-5--------------------------------|

---------------------------------------|
------7-5------------------------------|
-------------7-5-55--------------------|
---5-------------------7-7-5-----------|


--5-7777777777--5-7777777777777-7-8-9---999--7-5-----------------------------|
-------------------------------------------------------------------75-77-----|
-----------------------------------------------------------------------------|
-----------------------------------------------------------------------------|

---------------------------99999999999-9/11-11-11-11-11-11--5-5-0------------|
-7-77-5----------------------------------------------------------------------|
-----------7-5---------------------------------------------------------------|
------------------8-5-5------------------------------------------------------|

--------7-5-7-77-5-----------7-5-7-77-5---------------|
----------------------5-----------------------5-------|
------------------------------------------------------|
---5---------------------5-5--------------------5-----|


 Verse 4

---------------------------------7-5-77-------------------------------------|
--------7--5--7-77-5-------------------5--------7--5--7-77-5----------------|
------------------------5-----5------------------------------------5--------|
---5----------------------5------------------5-----------------------5------|

-----------------------------------------------------------------------|
-------7--5-777-5------------------------------------------------------|
---------------------5---------3-3--55--33--53-------------------------|
---5-------------------5----------------------------0-2-3--------------|

---------------------------------------------------------|
-------7-5-777-5----------7-5-777-5----------------------|
--------------------5---------------------5--------------|
---5------------------5--5------------------5------------|

---------9---------9--------------11----------|
----------------------------------------------|
--7-77-----7-77------7/9--9-9--------5--------|
----------------------------------------------|

---------------------------------------------------------|
-------7-5-777-5----------7-5-777-5----------------------|
--------------------5---------------------5--------------|
---5------------------5--5------------------5------------|


Solo 2 (again I have split this up to make it easier)

Part 1

----------------------------------------------------------------------------|
---------------------------75-7577-77-5-0---75-7577-77-5-0---75-7577-77-5-0-|
----------------------------------------------------------------------------|
--5-3-55-3-55-5--3-0--------------------------------------------------------|

-----------------------------------------------------------------------------|
-------4-5-6-7-----------------75-7577-77-5-0----75-7577-77-5-0--------------|
---5---------------5-4-6-7---------------------------------------------------|
-----------------------------------------------------------------------------|

-----------------------------------------------------------------------------|
----------------------------------------------------------445566770----------|
-5-77-5-77-3-55-5-3-53--------------00--44--55--77---------------------------|
---------------------------------------5---3---------------------------------|

Part 2

-----------------------------------------------------------------------------|
---7-5-7-----------77-5-7-----------77-5-7-----------77-5-7------------------|
------------5-3-0------------5-3-0------------5-3-0-------------5-3-0--------|
-----------------------------------------------------------------------------|

-7-77-5-7-77-5-5-0--7-75-7-775-50--------------------------------------------|
--------------------------------------------7775777-550-7775777-550----------|
-----------------------------------------------------------------------------|
-----------------------------------------------------------------------------|

------------9-----------9-----------7-5------------------------99999999999--|
--------------------------------------------7-5-----------------------------|
---7-7-7------7-7-7-------5-5-----------------7-5---------------------------|
--------------------------------------------------------5555----------------|

Part 3

----------9-7-5---------9-7-5----------9-7-5--------------------------|
--7-5-7---------7-5-7----------7-5-7---------7-5-7--5-----------------|
-------------------------------------------------------------7-5-0----|
----------------------------------------------------------------------|

--------------------------------------------------------|
-------4-5-7-----4-5-7-----7-----------7----------------|
----5----------5----------------4-5-7------4-5-7--------|
--------------------------------------------------------|


-------------9-----------9--------------------7-5--------------|
---------------------------------------------------7-5---------|
----7-7-7------7-7-7---------7\5---5-5------------7-5----------|
---------------------------------------------------------------|

-----------------------------------------|
---77-5-7-77-5-0-77-5--------------------|
----------------------------7------------|
-----------------------------------------|

Last Verse / End Riff

First line:
-----------------------------------------------|
-----------------------------------------------|
-----------------------------------------------|
---555555555555555555555-----------------------|

Second Line:
-----------------------------------------------|
-----------------------------------------------|
------55555555555555555555555------------------|
-----------------------------------------------|

Third Line:
-----------------------------------------------|
-----------------------------------------------|
----7777777777777777777777777------------------|
-----------------------------------------------|

Stop

End Riff:

---------------------------------------|
----7575-------------------------------|
-----------7575------------------------|
-------------------7505----------------|


Keep It Simple and dont lose the rhythm.

Tabbed By CoAyNslOeyR

            
            
Suggest correction
Creating personal tab
Creating personal tab
You can edit any tab online and save it as your Personal.

You can edit, replace or remove any tab part or add personal notes – all changes will be seen only by you.

Personal tabs can be accessed anytime from any device, even offline.
Learn more »
comments
print report bad tab
guest
Wanna post a correction for this tab? Suggest correction