Oops, an error
Loading. Please wait.

Pressed Rat And Warthog bass

by Cream
1,599 views 3 this week
1 commentread comment
1 2 3 4 5
x 3
add to favorites
×
Save as Personal and add changes to this tab that will be seen only by you. Learn more ›
×
You can save this tab as Personal to edit and correct it or add notes. All changes will be seen only by you. Learn more »
launch autoscroll
font size
0
reset
guitar tuner
edit
Autoscroll
slow
fast
+/-
esc
set tempo
stop
Difficulty
Its all here except the part behind the guitar solo i can't here all of that
email me if any ?'s
Pink_Floyd122@hotmail.com


intro:
G|----------------------------------------|
D|----------------------------------------|
A|--5--------3--------5--------3----------|
E|----------------------------------------|




Verse:
G|----------------------------------------|
D|----------------------------------------|
A|--5--------3--------5--------3----------|x4
E|----------------------------------------|


G|-----------------------------------------------|
D|-----------------------------------------------|
A|---555---444---220---2---555---444---220---2---|x4
E|-----------------------------------------------|

End:

G|----------------------------------------|
D|----------------------------------------|
A|--5--------3--------5--------3----------|
E|----------------------------------------|



Intro   2x
Verse   1x
Intro   2x
Verse   1x
Intro   1x

            
            
Suggest correction
Creating personal tab
Creating personal tab
You can edit any tab online and save it as your Personal.

You can edit, replace or remove any tab part or add personal notes – all changes will be seen only by you.

Personal tabs can be accessed anytime from any device, even offline.
Learn more »
Give kudos to tab author, rate the tab!
1 2 3 4 5
comments
print report bad tab
1 comment total.
0 reply
benjamencole1 10 Jan 08, 2015 12:20 PM, edited at 05:31 pm

Lack of accuracy. Tab incomplete. The intro section and parts accompanied by the horn in the song are incomplete.

guest
Wanna post a correction for this tab? Suggest correction