Oops, an error
Loading. Please wait.
We have an official Sunshine Of Your Love tab made by UG professional guitarists. Check out the tab »
×

Sunshine Of Your Love bass

version 4
version 4

Whole song

by Cream
174,940 views 81 this week
12 commentsread comments
1 2 3 4 5
x 68
add to favorites
×
Save as Personal and add changes to this tab that will be seen only by you. Learn more ›
×
You can save this tab as Personal to edit and correct it or add notes. All changes will be seen only by you. Learn more »
launch autoscroll
font size
0
reset
guitar tuner
backing track
0:00
0:00
edit
Autoscroll
slow
fast
+/-
esc
set tempo
stop
(Gtr 1) (E A D G) - 'Jack Bruce (Bass)'


[Intro]
    Q=118
   4/4
    (Gtr 1)
    E E E E E E E E   E E E E Q  E E
G|--7-7-5-7---------|-----------------|
D|o-----------7---6-|---5-----3------o|
A|o-----------------|-------5----5-5-o|
E|------------------|-----------------|

[Verse]
    E E E E E E E E   E E E E Q  Q  (6x)
G|------------------|---------------|
D|o-----------7---6-|---5-----3----o|
A|o-5-5-3-5---------|-------5----5-o|
E|------------------|---------------|

    E E E E E E E E   E E E E Q  Q
G|------------------|---------------|
D|o-5-5-3-5---------|--------------o|
A|o-----------5---4-|---3-----1----o|
E|------------------|-------3----3--|

    E E E E E E E E   E E E E Q  Q
G|------------------|---------------|
D|o-----------7---6-|---5-----3----o|
A|o-5-5-3-5---------|-------5----5-o|
E|------------------|---------------|

[Chorus]
    E. S E E H      Q  Q  Q  Q  (3x)
G|----------------|-------------|
D|o---------------|------------o|
A|o---------------|-3----------o|
E|--5--5-5--------|-------3-----|

  E. S E. S E. S E. S   E. S E. S E E E E
G|---------------------|-------------------|
D|---------------------|-------------------|
A|---------------------|-------------3-4---|
E|-5--5-5--5-5--5-5--5-|-5--5-5--5-5-------|

[Verse]
    E E E E E E E E   E E E E Q  Q  (5x)
G|------------------|---------------|
D|o-----------7---6-|---5-----3----o|
A|o-5-5-3-5---------|-------5----5-o|
E|------------------|---------------|

    E E E E E E E E   E E E E Q  Q
G|------------------|---------------|
D|o-5-5-3-5---------|--------------o|
A|o-----------5---4-|---3-----1----o|
E|------------------|-------3----3--|

    E E E E E E E E   E E E E Q  Q
G|------------------|---------------|
D|o-----------7---6-|---5-----3----o|
A|o-5-5-3-5---------|-------5----5-o|
E|------------------|---------------|

[Chorus]
    E. S E E H      Q  Q  Q  Q  (3x)
G|----------------|-------------|
D|o---------------|------------o|
A|o---------------|-3----------o|
E|--5--5-5--------|-------3-----|

  E. S E. S E. S E. S   E. S E. S E E E E
G|---------------------|-------------------|
D|---------------------|-------------------|
A|---------------------|-------------3-4---|
E|-5--5-5--5-5--5-5--5-|-5--5-5--5-5-------|

[Guitar Solo]
    E E E E E E E E   E E E E Q  Q  (4x)
G|------------------|---------------|
D|o-----------7---6-|---5-----3----o|
A|o-5-5-3-5---------|-------5----5-o|
E|------------------|---------------|

    E E E E E E E E   E E E E Q  Q
G|------------------|---------------|
D|o-5-5-3-5---------|--------------o|
A|o-----------5---4-|---3-----1----o|
E|------------------|-------3----3--|

    E E E E E E E E   E E E E Q  Q
G|------------------|---------------|
D|o-----------7---6-|---5-----3----o|
A|o-5-5-3-5---------|-------5----5-o|
E|------------------|---------------|

  E. S E E H      Q  Q  Q  Q
G|---------------|------------|
D|---------------|------------|
A|---------------|-3----------|
E|-5--5-5--------|-------3----|

  E. S E. S E. S E. S   E. S E. S E E E E
G|---------------------|-------------------|
D|---------------------|-------------------|
A|---------------------|-------------3-4---|
E|-5--5-5--5-5--5-5--5-|-5--5-5--5-5-------|

    E E E E E E E E   E E E E Q  Q  (6x)
G|------------------|---------------|
D|o-----------7---6-|---5-----3----o|
A|o-5-5-3-5---------|-------5----5-o|
E|------------------|---------------|

    E E E E E E E E   E E E E Q  Q
G|------------------|---------------|
D|o-5-5-3-5---------|--------------o|
A|o-----------5---4-|---3-----1----o|
E|------------------|-------3----3--|

    E E E E E E E E   E E E E Q  Q
G|------------------|---------------|
D|o-----------7---6-|---5-----3----o|
A|o-5-5-3-5---------|-------5----5-o|
E|------------------|---------------|

    E. S E E H      Q  Q  Q  Q  (5x)
G|----------------|-------------|
D|o---------------|------------o|
A|o---------------|-3----------o|
E|--5--5-5--------|-------3-----|

  E. S E. S E. S E. S   E. S E. S E. S E. S
G|---------------------|---------------------|
D|---------------------|---------------------|
A|---------------------|---------------------|
E|-5--5-5--5-5--5-5--5-|-5--5-5--5-5--5-5--5-|

  E. S E. S E. S E. S   E. S E. S E. S E. S
G|---------------------|----------------------|
D|---------------------|----------------------|
A|---------------------|----------------------|
E|-5--5-5--5-5--5-5--5-|-5--5-5--5-5--5-5--5--|

  E. S E. S E. S E. S   E. S E. S E. S E. S
G|---------------------|---------------------|
D|---------------------|---------------------|
A|---------------------|---------------------|
E|-5--5-5--5-5--5-5--5-|-5--5-5--5-5--5-5--5-|

  E. S E. S E. S E. S   E. S E. S E. S E. S
G|---------------------|----------------------*|
D|---------------------|----------------------*|
A|---------------------|----------------------*|
E|-5--5-5--5-5--5-5--5-|-5--5-5--5-5--5-5--5--*|


************************************

| *  Natural harmonic
| o - repeat start
| o| - repeat end
| *|  - double bar (ending)
|  :  - bar (freetime)
|  $  - Segno
|  &  - Coda
|  W - whole
|  H - half
|  Q - quarter
|  E - 8th
|  S - 16th
|  T - 32nd
|  X - 64th
|  a - acciaccatura

************************************

            
            
Suggest correction
Creating personal tab
Creating personal tab
You can edit any tab online and save it as your Personal.

You can edit, replace or remove any tab part or add personal notes – all changes will be seen only by you.

Personal tabs can be accessed anytime from any device, even offline.
Learn more »
comments
print report bad tab
12 comments total. Showing first comments.
+3 reply
Wiegraf 50 Oct 09, 2004 08:00 PM

||--7-7-5-7---------|-----------------||
||o-----------7---6-|---5-----3^-----o||
||o-----------------|-------5----5---o||
||------------------|-----------------||

This's how I play the intro line. It sounds right. Nice tab, though.

+1 reply
chris.bassman 10 Nov 12, 2004 07:00 PM

hey this is christer!!! sunshine of your love is the best song on the planet of earth... i love you mr. bye........~~~~~~~~~~~~~...........

xoxoxoxoxoxoxoxoxoxoxoxoxox
xoxoxoxoxoxoxoxoxoxoxoxoxox
xoxoxoxoxoxoxoxoxoxoxoxoxox
xoxoxoxoxoxoxoxoxoxoxoxoxox

+2 reply
Schiz31 20 Nov 30, 2006 11:08 AM

just an fyi, as per the Royal Albert Hall DVD, Bruce uses the open A on the choruses, not the 5th fret A.

guest
You may want to rate the tab now too:
select rating
Wanna post a correction for this tab? Suggest correction