Oops, an error
Loading. Please wait.

Hide tab

version 8
version 8
by Creed
669 views 1 this week
no commentswrite comment
1 2 3 4 5
3 more votes to show rating
add to favorites
×
Save as Personal and add changes to this tab that will be seen only by you. Learn more ›
×
You can save this tab as Personal to edit and correct it or add notes. All changes will be seen only by you. Learn more »
launch autoscroll
font size
0
reset
how to read this tab
guitar tuner
edit
Autoscroll
slow
fast
+/-
esc
set tempo
stop
----------------------------------------------------------------------------
                                 Hide - Creed
----------------------------------------------------------------------------
         This tab is original. Please do not copy without permission.
----------------------------------------------------------------------------
Tabbed by: Matthew K. Alexander
Email: swaffywaffle@yahoo.com

Tuning: Standard, with a capo on 1st fret.


Notes:
- All numbers correspond to the capo's position, not the guitar's nut.
- The tab follows the song in order, and does not make you go back up 
  the page to find and re-play a certain section.
- For the effects, use reverb.

Here's the tuning change that the capo does:
[E  A  D  G  B  e]  >  [F  A# D# G# C  F]

KEY:
b – bend
r – release from bend
h – hammer-on
p – pull-off
m – palm mute
X2, X3, X4 – Play section this many times over

Intro w/ Distortion [Using humbucker pickup nearest to bridge]
F |-------------------------------------12--------|
C |-----------------------------------------24----|
G#|-----------------------------------------------|
D#|-----12b13r12---12---12b13r12---13-------------|
A#|-0------------0---------------0----------------|
F |-----------------------------------------------|
   [-              X2               -]


Intro w/ Distortion [Now the rest of the band comes in.]
F |-------------------------------------0----0-0-0----0----0-0-0----0------|
C |-------------------------------------14---141414---14---141414---14-----|
G#|-------------------------------------14---141414---14---141414---14-----|
D#|-----12b13r12---12---12b13r12---13---12---121212---12---121212---12-----|
A#|-0------------0---------------0------0----0-0-0----0----0-0-0----0------|
F |------------------------------------------------------------------------|
   [-                                X2                              -]


Verse [Using the Clean channel, same pickup]
    m m m       m m m
F |-------------------------0-------0---0---0-0---0-0---0-0-0--------------|
C |---------------------------2-----2---0---0h2---2-2---2-2-0--------------|
G#|-------1h2p1-------2p1-------2---2---2---2-2---2-2---2-2-2--------------|
D#|-----4-------2---------2-------2-2---2---2-2---2-2---2-2-2--------------|
A#|---4-------------2---------------0---0---0-0---0-0---0-0-0--------------|
F |-2-------------0--------------------------------------------------------|
   [-  X2, then X2 again with more mute when singer enters  -]


end of Verse, into Chorus
    m m m       m m m
F |-------------------------0-------0---0---0--00---0-0-0------------------|
C |---------------------------2-----3---3---3--33---3-3-3------------------|
G#|-------1h2p1-------2p1-------2---2---2---2--22---2-2-2------------------|
D#|-----4-------2---------2-------2-0---0---0--00---0-0-0------------------|
A#|---4-------------2------------------------------------------------------|
F |-2-------------0--------------------------------------------------------|


Chorus [Using clean channel. 2nd guitarist playing lightly in back w/ dist.]
[Play through the whole section twice]
F |-0---000---00-00---000---0---000---00-00---000--------------------------|
C |-0---000---00-00---000---0---000---00-00---000--------------------------|
G#|-6---666---66-66---666---6---666---66-66---666--------------------------|
D#|-7---777---77-77---777---7---777---77-77---777--------------------------|
A#|-7---777---77-77---777---7---777---77-77---777--------------------------|
F |-5---555---55-55---555---4---444---44-44---444--------------------------|
   [-                       X2

    m m m       m m m
F |-------------------------0-------0---0---0--00---0-0-0---|         |-0-|
C |---------------------------2-----3---3---3--33---3-3-3---|         |-2-|
G#|-------1h2p1-------2p1-------2---2---2---2--22---2-2-2---|         |-2-|
D#|-----4-------2---------2-------2-0---0---0--00---0-0-0---|         |-2-|
A#|---4-------------2---------------------------------------|         |-0-|
F |-2-------------0-----------------------------------------|         |---|
                          X2                            -]End of Chorus ^


Verse II [Using the Clean channel]
    m m m       m m m
F |-------------------------0-------0---0---0-0---0-0---0-0-0--------------|
C |---------------------------2-----2---0---0h2---2-2---2-2-0--------------|
G#|-------1h2p1-------2p1-------2---2---2---2-2---2-2---2-2-2--------------|
D#|-----4-------2---------2-------2-2---2---2-2---2-2---2-2-2--------------|
A#|---4-------------2---------------0---0---0-0---0-0---0-0-0--------------|
F |-2-------------0--------------------------------------------------------|
   [-  X2, then X2 again with more mute when singer enters  -]


end of Verse II, into Chorus
    m m m       m m m
F |-------------------------0-------0---0---0--00---0-0-0------------------|
C |---------------------------2-----3---3---3--33---3-3-3------------------|
G#|-------1h2p1-------2p1-------2---2---2---2--22---2-2-2------------------|
D#|-----4-------2---------2-------2-0---0---0--00---0-0-0------------------|
A#|---4-------------2------------------------------------------------------|
F |-2-------------0--------------------------------------------------------|


Chorus II w/ Distortion
[Play through the whole section twice]
F |-0---000---00-00---000---0---000---00-00---000--|
C |-0---000---00-00---000---0---000---00-00---000--|
G#|-6---666---66-66---666---6---666---66-66---666--|
D#|-7---777---77-77---777---7---777---77-77---777--|
A#|-7---777---77-77---777---7---777---77-77---777--|
F |-5---555---55-55---555---4---444---44-44---444--|
   [-                  X2

F |-------------------------0---000---00-00---000---|          |-0-|
C |-------------------------3---333---33-33---333---|          |-2-|
G#|-2---22---1---11---1---112---222---22-22---222---|          |-2-|
D#|-4---44---2---22---2---220---000---00-00---000---|          |-2-|
A#|-4---44---2---22---2---22------------------------|          |-0-|
F |-2---22---0---00---0---00------------------------|          |---|
                         X2                     -] End of Chorus ^


“No reason to hide.”


Intro II w/ Distortion
F |-------------------------------------12--------|
C |-----------------------------------------24----|
G#|-----------------------------------------------|
D#|-----12b13r12---12---12b13r12---13-------------|
A#|-0------------0---------------0----------------|
F |-----------------------------------------------|
   [-              X2               -]

F |-------------------------------------0----0-0-0----0----0-0-0----0------|
C |-------------------------------------14---141414---14---141414---14-----|
G#|-------------------------------------14---141414---14---141414---14-----|
D#|-----12b13r12---12---12b13r12---13---12---121212---12---121212---12-----|
A#|-0------------0---------------0------0----0-0-0----0----0-0-0----0------|
F |------------------------------------------------------------------------|
   [-                                X4                              -]


Bridge w/ Distortion
e|---------------------------0---0---0000---000--|
B|---------------------------3---3---3333---333--|
G|-2---222---1---111---1---112---2---2222---222--|
D|-4---444---2---222---2---220---0---0000---000--|
A|-4---444---2---222---2---22--------------------|
E|-2---222---0---000---0---00--------------------|


Chorus III w/ Distortion
[Play through the whole section twice]
F |-0---000---00-00---000---0---000---00-00---000--|
C |-0---000---00-00---000---0---000---00-00---000--|
G#|-6---666---66-66---666---6---666---66-66---666--|
D#|-7---777---77-77---777---7---777---77-77---777--|
A#|-7---777---77-77---777---7---777---77-77---777--|
F |-5---555---55-55---555---4---444---44-44---444--|
   [-                  X3 

F |-------------------------0---000---00-00---000---|
C |-------------------------3---333---33-33---333---|
G#|-2---22---1---11---1---112---222---22-22---222---|
D#|-4---44---2---22---2---220---000---00-00---000---|
A#|-4---44---2---22---2---22------------------------|
F |-2---22---0---00---0---00------------------------|
                         X3                     -]

Outtro w/ Distortion
F |-------------------------------------0----0-0-0----0----0-0-0----0------|
C |-------------------------------------14---141414---14---141414---14-----|
G#|-------------------------------------14---141414---14---141414---14-----|
D#|-----12b13r12---12---12b13r12---13---12---121212---12---121212---12-----|
A#|-0------------0---------------0------0----0-0-0----0----0-0-0----0------|
F |------------------------------------------------------------------------|
   [-                                X3                              -]

F |-------------------------------------|
C |-------------------------------------|
G#|-------------------------------------|
D#|-----12b13r12---12---12b13r12---13~~~|
A#|-0------------0---------------0------|
F |-------------------------------------|



I hope you enjoy the song and the tab. Have a good day.

            
            
Suggest correction
Creating personal tab
Creating personal tab
You can edit any tab online and save it as your Personal.

You can edit, replace or remove any tab part or add personal notes – all changes will be seen only by you.

Personal tabs can be accessed anytime from any device, even offline.
Learn more »
Give kudos to tab author, rate the tab!
1 2 3 4 5
comments
print report bad tab
guest
You may want to rate the tab now too:
select rating
Wanna post a correction for this tab? Suggest correction