Oops, an error
Loading. Please wait.
We have an official My Own Prison tab made by UG professional guitarists. Check out the tab »
×
by Creed
40,329 views 45 this week
1 commentread comment
1 2 3 4 5
x 11
add to favorites
×
Save as Personal and add changes to this tab that will be seen only by you. Learn more ›
×
You can save this tab as Personal to edit and correct it or add notes. All changes will be seen only by you. Learn more »
launch autoscroll
font size
0
reset
how to read this tab
guitar tuner
backing track
0:00
0:00
edit
Autoscroll
slow
fast
+/-
esc
set tempo
stop
Band - Creed
Song - My Own Prison

Gtr I (D A D G B E) - 'Mark Tremonti - Electric w/light amp overdrive'
Gtr II (D A D G B E) - 'Mark Tremonti - Electric w/light amp overdrive'
Gtr III (D A D G B D) - 'Gtr I  w/dist'
Gtr IV (D A D G B E) - 'Gtr II w/dist'
Gtr V (D A D G B E) - 'Mark Tremonti - Lead - semi-clean w/flanger'
Gtr VI (D A D G B E) - 'Gtr V w/dist'

Intro
  Q=70
 4/4
  Gtr I
  Q  E. S +S  S S S S S S S   Q  E. S S S S S S S E
|---------------------------|-----------------------||
|---------------------------|-----------------------||
|-------2-(2)---------0-----|----5--5---------------||
|----0--0-(0)-----0h3---3---|----3--3---3-----------||
|----0--0-(0)-0h1---------0-|-3--3--3---3-3h5-3-----||
|-0--0----------------------|-3--3--------------5-3-||
|
| Gtr II
|                                       PM
| W                           H       S S S S S S E
|---------------------------|-----------------------||
|---------------------------|-----------------------||
|---------------------------|-----------------------||
|---------------------------|-----------------------||
|---------------------------|-------------3h5-3-----||
|---------------------------|-----------0-------5-3-||


 Verse 1
  Q  E. S +S  S S S S S S S   Q  E. S S S S S S S S S
|---------------------------|-------------------------|
|---------------------------|-------------------------|
|----2--2-(2)---------0-----|----5--5-----------------|
|----0--0-(0)-----0h3---3---|----3--3---3-------------|
|----0--0-(0)-0h1---------0-|-3--3--3---3-3h5-3-----0-|
|-0--0----------------------|-3--3--------------5-3---|
|-Rhy Fig 1
|
| H       +E    S S S S E     W
|---------------------------|-------------------------|
|---------------------------|-------------------------|
|---------------------------|-------------------------|
|-------------------0h3-----|-------------------------|
|---------------0h1-----1---|-0-----------------------|
|-0-------(0)---------------|-------------------------|
|-Riff A

   Q   E. S +S  S S S S S S S   Q  E. S S S S S S S E
|-----------------------------|-----------------------|
|-----------------------------|-----------------------|
|------2--2-(2)---------0-----|----5--5---------------|
|------0--0-(0)-----0h3---3---|----3--3---3-----------|
|------0--0-(0)-0h1---------0-|-3--3--3---3-3h5-3-----|
|--0---0----------------------|-3--3--------------5-3-|
|                                       end Rhy Fig 1-|
| +H        +E    S S S S E     W
|-----------------------------|-----------------------|
|-----------------------------|-----------------------|
|-----------------------------|-----------------------|
|---------------------0h3-----|-3---------------------|
|-(0)-------(0)---0h1-----1---|-----------------------|
|-----------------------------|-----------------------|


w/Rhy Fig 1 x3
  +H        +E    S S S S E     W
|-----------------------------|-------------------------|
|-----------------------------|-------------------------|
|-----------------------------|-------------------------|
|-(3)-------(3)-------0h3-----|-------------------------|
|-----------------0h1-----1---|-0-----------------------|
|-----------------------------|-------------------------|


  +H        +E    S S S S E     H       E   S S S S S S
|-----------------------------|-------------------------|
|-----------------------------|-------------------------|
|-----------------------------|-------------------------|
|---------------------0h3-----|-3---------------------0-|
|-(0)-------(0)---0h1-----1---|-------------3h5-3-------|
|-----------------------------|-------------------5-3---|
                   end Riff A-|

  H       +E    S S S S E     W
|---------------------------|-----------------------|
|---------------------------|-----------------------|
|---------------------------|-----------------------|
|-------------------0h3-----|-----------------------|
|---------------0h1-----1---|-0---------------------|
|-0-------(0)---------------|-----------------------|


  +H        +E    S S S S E     H       E   S S S S S S
|-----------------------------|-------------------------|
|-----------------------------|-------------------------|
|-----------------------------|-------------------------|
|---------------------0h3-----|-3---------------------0-|
|-(0)-------(0)---0h1-----1---|-------------3h5-3-------|
|-----------------------------|-------------------5-3---|


  H       +E    S S S S E     W
|---------------------------|-------------------------|
|---------------------------|-------------------------|
|---------------------------|-------------------------|
|-------------------0h3-----|-------------------------|
|---------------0h1-----1---|-0-----------------------|
|-0-------(0)---------------|-------------------------|


  +H        +E    S S S S E     H       E   S S S S E
|-----------------------------|-----------------------|
|-----------------------------|-----------------------|
|-----------------------------|-----------------------|
|---------------------0h3-----|-3---------------------|
|-(0)-------(0)---0h1-----1---|-------------3h5-3-----|
|-----------------------------|-------------------5-3-|
                              |-Riff A1             --|

 Chorus
  $
  Gtrs III, IV
  Q  E. S +S  S E +S  S S S   E. S E. S +S  S E +S  S S S
|---------------------------|-----------------------------|
|---------------------------|-----------------------------|
|----5--5-(5)-5-5-(5)-5-5-5-|-4--4-4--4-(4)-4-4-(4)-4-4-4-|
|----3--3-(3)-3-3-(3)-3-3-3-|-2--2-2--2-(2)-2-2-(2)-2-2-2-|
|-3--3--3-(3)-3-3-(3)-3-3-3-|-2--2-2--2-(2)-2-2-(2)-2-2-2-|
|-3--3--3-(3)-3-3-(3)-3-3-3-|-2--2-2--2-(2)-2-2-(2)-2-2-2-|
|-Rhy Fig 2

  Gtr I
  E S S E S S +S  S E +S  S S S   E.   S E S S +S  E   S  S  S S S
|-------------------------------|-----------------------------------|
|-------------------------------|------3-3---5-(5)-5---6--6--6-6-6--|
|-3-3-3-3-3-3-(3)-3-3-(3)-3-3-3-|-2----2-2---4-(4)-4---5--5--5-5-5--|
|-1-1-1-1-1-1-(1)-1-1-(1)-1-1-1-|-0----0-0-0-0-(0)-0---0--0--0-0-0--|
|-1-1-1-1-1-1-(1)-1-1-(1)-1-1-1-|-0---------------------------------|
|-1-1-1-1-1-1-(1)-1-1-(1)-1-1-1-|-0---------------------------------|
|                                                     end Rhy Fig 2-|
| Gtr II
| E S S E S S +S  S E +S  S S S   E  S S E S S +S  S E   +S  S S S
|-------------------------------|-----------------------------------|
|-------------------------------|-----------------------------------|
|-3-3-3-3-3-3-(3)-3-3-(3)-3-3-3-|-2--2-2-2-2-2-(2)-2-2---(2)-2-2-2--|
|-1-1-1-1-1-1-(1)-1-1-(1)-1-1-1-|-0--0-0-0-0-0-(0)-0-0---(0)-0-0-0--|
|-1-1-1-1-1-1-(1)-1-1-(1)-1-1-1-|-0--0-0-0-0-0-(0)-0-0---(0)-0-0-0--|
|-1-1-1-1-1-1-(1)-1-1-(1)-1-1-1-|-0--0-0-0-0-0-(0)-0-0---(0)-0-0-0--|


  Gtrs I, II
  E S S E S S +S  S E +S  S S S   E S S E S S +S  S E +S  S S S
|-------------------------------|-------------------------------|
|-------------------------------|-------------------------------|
|---5-5-5-5-5-(5)-5-5-(5)-5-5-5-|-4-4-4-4-4-4-(4)-4-4-(4)-4-4-4-|
|---3-3-3-3-3-(3)-3-3-(3)-3-3-3-|-2-2-2-2-2-2-(2)-2-2-(2)-2-2-2-|
|-3-3-3-3-3-3-(3)-3-3-(3)-3-3-3-|-2-2-2-2-2-2-(2)-2-2-(2)-2-2-2-|
|-3-3-3-3-3-3-(3)-3-3-(3)-3-3-3-|-2-2-2-2-2-2-(2)-2-2-(2)-2-2-2-|


                                   To Coda
  E S S E S S +S  S E +S  S S S   W
|-------------------------------|----------||
|-------------------------------|----------||
|-3-3-3-3-3-3-(3)-3-3-(3)-3-3-3-|-2--------||
|-1-1-1-1-1-1-(1)-1-1-(1)-1-1-1-|-0--------||
|-1-1-1-1-1-1-(1)-1-1-(1)-1-1-1-|-0--------||
|-1-1-1-1-1-1-(1)-1-1-(1)-1-1-1-|-0--------||


  Gtr I
w/last 2 bars of Rhy Fig 1
  Gtr II
                                                  PM--|
  H       +E    S S S S E     H       +E    S S S S S S
|---------------------------|---------------------------||
|---------------------------|---------------------------||
|---------------------------|---------------------------||
|-------------------0h3-----|---------------3-----------||
|---------------0h1-----1---|-0-------(0)---3h5-3-----0-||
|-0-------(0)---------------|---------------------5-3---||


 Verse 2
Gtr 1 - Fig 1 x2
Gtr II - Riff A then Riff A1


    Gtrs III, IV
                    PM|                             D.S. al Coda
    Q  E. S S S E E S S   Q  E. S S S S S S S S S  4x
||----------------------|--------------------------||
||o----3--3-3-3---------|-------------------------o||
||-----2--2-2-2---------|----5--5------------------||
||-----0--0-0-0-3-3-----|----3--3---3--------------||
||o-0--0--0-0-0-1-1-0-0-|-3--3--3---3-3h5-3-----0-o||
||--0--0--0-0-0---------|-3--3--3-----------5-3----||


 Interlude
  &
  Gtrs I, II
|-Rhy Fig 4                                       end Rhy Fig 4-|
  F5                C5            D5                Bb5
  E S S E S S  S  S E   S S S S   E S S E S S  S  S E   S S S S
  | | | | | |  |  | |   | | | |   | | | | | |  |  | |   | | | |
  / / / / / /  /  / /   / / / /   / / / / / /  /  / /   / / / /

  Gtr V
  ~                               ~
  H           +S  S S S E   S S   H           +S  S S S E   S S
|-------------------------------|-------------------------------|
|-----------------------6---6---|-----------------------6---6---|
|-------------------------------|-------------------------------|
|-7-----------(7)---7h8-------8-|-7-----------(7)---7h8-------8-|
|-----------------0-------------|-----------------0-------------|
|-------------------------------|-------------------------------|
|-Riff B             end Riff B-|

  F5                C5            D5                 Bb5
                                                     Gtrs III, IV
  E S S E S S  S  S E   S S S S   E S S E  S S  S  S E   S S S S
  | | | | | |  |  | |   | | | |   | | | |  | |  |  | |   | | | |
  / / / / / /  /  / /   / / / /   / / / /  / /  /  / /   / / / /

                                                     Gtr VI
  ~                               ~
  H           +S  S S S E   S S   Q     E.   S +E    S S E   S S
|-------------------------------|--------------------------------||
|-----------------------6---6---|-6----------6-(6)-------6---6---||
|-------------------------------|--------------------------------||
|-7-----------(7)---7h8-------8-|-------7------------7h8-------8-||
|-----------------0-------------|--------------------------------||
|-------------------------------|--------------------------------||


   Bridge
   Rhy Fig 4 x3 + Riff B x6


w/Rhy Fig 4
  ~
  H           +S  S S S E   S S   S S S S S S S S S S S S S S E
|-------------------------------|---------------------------------||
|-----------------------6---6---|-6-----6-----6-----6-----6-------||
|-------------------------------|---------------------------------||
|-7-----------(7)---7h8-------8-|---8-7---8-7---8-7---8-7---8-7---||
|-----------------0-------------|---------------------------------||
|-------------------------------|---------------------------------||


   Chorus
    Gtrs III, IV
 w/Rhy Fig 2 x2
    Gtr VI
    ~                               ~~
    Q  E  S S +S  S S S  E    E     Q    E  S S +S  S E  E    E
||--------------------------------|-------------------------------|
||o----------------------6--------|-------------------------------|
||--------------------------------|-------------------------------|
||--7--7--7-7-(7)---7h8-------7---|-5----5--5-5-(5)-5-5--5----5---|
||o---------------0---------------|-------------------------------|
||--------------------------------|-------------------------------|

  ~                                 ~
  Q     E S S +S  S S S  E    E     Q     E S S +S   S S S  E    E
|---------------------------------|----------------------------------|
|------------------------6--------|-------------------------6--------|
|---------------------------------|----------------------------------|
|-5-----5-5-5-(5)---7h8-------8---|-7-----7-7-7-(7)/---7h8-------7---|
|-----------------0---------------|------------------0---------------|
|---------------------------------|----------------------------------|


  ~                               ~~
  Q  E  S S +S  S S S  E    E     Q    E  S S +S  S E  E    E
|-------------------------------|-------------------------------|
|----------------------6--------|-------------------------------|
|-------------------------------|-------------------------------|
|-7--7--7-7-(7)---7h8-------7---|-5----5--5-5-(5)-5-5--5----5---|
|---------------0---------------|-------------------------------|
|-------------------------------|-------------------------------|


  ~
  Q     E S S +S  S S S  E    E
|---------------------------------|
|------------------------6--------|
|---------------------------------|
|-5-----5-5-5-(5)---7h8-------8---|
|-----------------0---------------|
|---------------------------------|


 1.                                    2.
  E S S E S S +S   S E   +S  S S S     W
|-----------------------------------||-------------------------||
|----------------------------------o||-------------------------||
|-----------------------------------||-2-----------------------||
|-----------------------------------||-0-----------------------||
|----------------------------------o||-0-----------------------||
|-----------------------------------||-0-----------------------||
|
| ~                                    ~
| Q     E S S +S   S S S  E    E       Q  E S S +S   S S S E E
|-----------------------------------||-------------------------||
|-------------------------6--------o||---------------------6---||
|-----------------------------------||-------------------------||
|-7-----7-7-7-(7)/---7h8-------7----||-7--7-7-7-(7)/---7h8---7-||
|------------------0---------------o||---------------0---------||
|-----------------------------------||-------------------------||


 Outro
                                   H.=H
  Gtrs I, V
  Q  E. S +S  S E +S  S S S   E. S E. S +S  S E +S  S S S
|---------------------------|-----------------------------|
|---------------------------|-----------------------------|
|----5--5-(5)-5-5-(5)-5-5-5-|-4--4-4--4-(4)-4-4-(4)-4-4-4-|
|----3--3-(3)-3-3-(3)-3-3-3-|-2--2-2--2-(2)-2-2-(2)-2-2-2-|
|-3--3--3-(3)-3-3-(3)-3-3-3-|-2--2-2--2-(2)-2-2-(2)-2-2-2-|
|-3--3--3-(3)-3-3-(3)-3-3-3-|-2--2-2--2-(2)-2-2-(2)-2-2-2-|


  E S S E S S +S  S E +S  S S S   W
|-------------------------------|------*|
|-------------------------------|------*|
|-3-3-3-3-3-3-(3)-3-3-(3)-3-3-3-|------*|
|-1-1-1-1-1-1-(1)-1-1-(1)-1-1-1-|-0----*|
|-1-1-1-1-1-1-(1)-1-1-(1)-1-1-1-|-0----*|
|-1-1-1-1-1-1-(1)-1-1-(1)-1-1-1-|-0----*|

            
            
Suggest correction
Creating personal tab
Creating personal tab
You can edit any tab online and save it as your Personal.

You can edit, replace or remove any tab part or add personal notes – all changes will be seen only by you.

Personal tabs can be accessed anytime from any device, even offline.
Learn more »
comments
print report bad tab
1 comment total.
0 reply
Mainer 959 Mar 03, 2010 02:33 PM

Great tab, a bit hard to follow, but good all in all

guest
You may want to rate the tab now too:
select rating
Wanna post a correction for this tab? Suggest correction