Oops, an error
Loading. Please wait.

One bass

version 1
version 1

Whole song

Interactive

by Creed
7,154 views 3 this week
1 commentread comment
1 2 3 4 5
x 6
add to favorites
×
Save as Personal and add changes to this tab that will be seen only by you. Learn more ›
×
You can save this tab as Personal to edit and correct it or add notes. All changes will be seen only by you. Learn more »
launch autoscroll
font size
0
reset
guitar tuner
edit
Autoscroll
slow
fast
+/-
esc
set tempo
stop
Difficulty
intermediate
Creed-One
This tab doesn't fit to the original Basstab but it sounds nice :)
To make it more exciting I've done variations for the vers and the chorus.
This is my first tab and I hope you'll like it.

Vers:

G---------------------------------|
D---------------------------------|
A--4-4-4-4--------7-7-7-7---------|
E---------5-5-5-5---------7-7-7-7-|

Variation
G-----------------------------------|
D-----------------------------------|
A--4-4-4/16/4--------7-9-7-7--------|
E------------5/7-5-5--------7-7-7-9-|

G--6-6-6-6----------9-9-9-9-------------|
D----------7-7-7-7------------9-9-9-9---|
A-4-4-4-4----------7-7-7-7--------------|
E---------5-5-5-5------------7-7-7-7----|

Chorus:

G---------------------------------|
D---------------------------------|
A-2-2-2-2---------4-4-4-4---------|
E---------2-2-2-2---------4-4-4-4-|

Variation
G---------------------------------|
D---------------------------------|
A-0/2-2-2---------2/4-4-4---------|
E---------0/2-2-2---------6/4-4-4-|

G-------------------------------------------------|
D-------------------------------------------------|
A-12/14-14-14-------------14/16-16-16-------------|
E-------------12/14-14-14-------------18/16-16-16-|

G----------------------------------------------------------------|
D----------------------------------------------------------------|
A-0-1-2/4-2-2-2-2-----------------2-3-4/6-4-4-4-4----------------|
E-----------------0-1-2/4-2-2-2-2----------------6-5-4/3-4-4-4-4-|

G--4-4------------6-6------------|
D----------4-4------------6-6----|
A-2-2-2-2--------4-4-4-4---------|
E---------2-2-2-2--------4-4-4-4-|

            
            
Suggest correction
Creating personal tab
Creating personal tab
You can edit any tab online and save it as your Personal.

You can edit, replace or remove any tab part or add personal notes – all changes will be seen only by you.

Personal tabs can be accessed anytime from any device, even offline.
Learn more »
comments
print report bad tab
1 comment total.
0 reply
Fausch 103 May 10, 2010 09:55 AM

There's a fill missing that he does at the end of a measure.

guest
Wanna post a correction for this tab? Suggest correction