Oops, an error
Loading. Please wait.

Overcome tab

version 1
version 1

Whole song

Interactive

by Creed
15,543 views 1 this week
4 commentsread comments
1 2 3 4 5
x 5
add to favorites
×
Save as Personal and add changes to this tab that will be seen only by you. Learn more ›
×
You can save this tab as Personal to edit and correct it or add notes. All changes will be seen only by you. Learn more »
launch autoscroll
font size
0
reset
how to read this tab
guitar tuner
edit
Autoscroll
slow
fast
+/-
esc
set tempo
stop
                             Overcome - Creed
-------------------------------------------------------------------------------
Tabbed by: Joe
Email:joseph_lacalandra@occ.mailcruiser.com

Tuning: Drop D (D,A,D,G,B,E)

Intro

e|-----------------------------------------|
B|-----------------------------------------|
G|-----------------------------------------|
D|-0-2-2-7-2--0-2-7-5--0-2-2-7-2-------X2--|
A|-0-2-2-7-2--0-2-7-5--0-2-2-7-2-----------|
D|-0-2-2-7-2--0-2-7-5--0-2-2-7-2-5+--------|

Verse
e|------------------------------------------------------------------------------|
B|--7---------------------------------------------------------------------------|
G|-----5------------------------------------------------------------------------|
D|--------7---------------------------------------------------------------------|
A|------------------------------------------------------------------------------|
E|------------------------------------------------------------------------------|

Chorus
e|---------------------------------------------------------------------------------------|
B|---------------------------------------------------------------------------------------|
G|--5-----7-----5-----7-----5--4---------------------------------------------------------|
D|--5--2--7--2--5--2--7--2--5--4---------------------------------------------------------|
A|--3--2--5--2--3--2--5--2--3--2---------------------------------------------------------|
E|-----2-----2-----2-----2---------------------------------------------------------------|

Bridge (Same As Intro)

| /  slide up
| \  slide down
| h  hammer-on
| p  pull-off
| ~  vibrato
| +  harmonic
| x  Mute note

            
            
Suggest correction
Creating personal tab
Creating personal tab
You can edit any tab online and save it as your Personal.

You can edit, replace or remove any tab part or add personal notes – all changes will be seen only by you.

Personal tabs can be accessed anytime from any device, even offline.
Learn more »
comments
print report bad tab
4 comments total. Showing first comments.
0 reply
SlashVRGNR 10 Aug 21, 2009 11:20 AM

I made a mistake when tabbing this, the verse should be

Verse
e|------------------------------------------------------------------------------|
B|--5---------------------------------------------------------------------------|
G|-----7------------------------------------------------------------------------|
D|--------5---------------------------------------------------------------------|
A|------------------------------------------------------------------------------|
E|------------------------------------------------------------------------------|

Email me with any further questions

0 reply
unformed68 10 Aug 21, 2009 04:58 PM

This is decent considering this song is brand new.

I can't wait to see a full broken down version for it.

0 reply
Tap597 40 Sep 27, 2009 07:57 AM

its really in drop b dude try ver 2

guest
Wanna post a correction for this tab? Suggest correction