Oops, an error
Loading. Please wait.

Torn bass

version 2
version 2

Whole song

  • This tab clarifies a lot of the rhythms from the s... Show more

Interactive

by Creed
5,541 views 6 this week
1 commentread comment
1 2 3 4 5
x 3
add to favorites
×
Save as Personal and add changes to this tab that will be seen only by you. Learn more ›
×
You can save this tab as Personal to edit and correct it or add notes. All changes will be seen only by you. Learn more »
launch autoscroll
font size
0
reset
guitar tuner
backing track
0:00
0:00
edit
Autoscroll
slow
fast
+/-
esc
set tempo
stop
The other tab was good, but there were a couple mistakes that I couldn't help but notice

Intro:
G -----------------------7--------------------|
D --------------------------------------------|
A ----------------------------------5-5-5-5-5-|
D -----------------------------0--------------|


Verse:
G ---------------------------------------------------------------|
D -----------------------3---------------------------3-3h5-5-5/7-|
A ---53-3-3--3h5---53-3---303h5----53-3-3--3h5---53-3-3----------|
D -0-------0-----0--------------0--------0-----0-----------------|


Pre-Chorus:
G --------------------------------|
D --------------------------------|
A ----------------3-33-33-33------|
D -3-33-33-33-3-33------------0-3-|

G ----------------------------------------------------|
D ----------------------------------------------------|
A --------------3-4-5-0-3-4-------------3-4-5-0-5-4-3-|
D -0--0-03-0-0--------------0--0-0-3-0-0--------------|


Chorus:
G ----------------------------------------------------------------|
D -------------------------------------------3333-------75--------|
A ---------33-3-3-----------5555-5-0h1-11-11------0-00-0--75------|
D -3-33-33--------0h5-55-55---------------------------------7-0h5-|


Breakdown:
G -----------------------------------------------------------------------|
D -------------------------------------333-------333-------222------222--|
A ---3322----66--66--------4-54-----------5---------5---------5--------5-|
D -00----0077--77--7700-3h5----50-3333------3333------2222------2222-----|

G ------------------------------------------------------------------|
D ------------------------------------------------------------------|
A ---3322----66--66--------4-54-------------------------------------|
D -00----0077--77--7700-3h5----50-3-33-33-330-0h5-0-2-22-22-220-0h3-|

G ----------------------------------------------------------------------|
D ----------------------------------------------------------------------|
A ---3-2-------6-----6---------4-54-------------------------------------| x3
D -0-----0-3h5---3h5---7-0-3h5-----50-3-33-33-330-0h5-0h2-22-22-220-0h3-|


Soft Chorus:
------------------------------------------------------------|
----------------3~--------------------------3~----75--------|
----3~----5~-1~----0-0----------3~----5~-1~----0~---75------|
-3~----5~--------------0h5-5-3~----5~-----------------7-0h5-|

End:
G -------------------------------------------------------------------------|
D -------------------------------------------------------------------------|
A ---3-2-------6-----6---------4-54----------------------------------------|
D -0-----0-3h5---3h5---7-0-3h5-----50-3-33-33-330-0h5-0h2-22-22-220-0h3-0~-|


Here's the order, although it's pretty straightforward:

Intro
Verse x3
Pre-chorus x2
Chorus x2
Verse x3
Pre-chorus x2
Chorus x2
Breakdown
Verse x2
Soft chorus x1
Chorus x2
End

Enjoy

            
            
Suggest correction
Creating personal tab
Creating personal tab
You can edit any tab online and save it as your Personal.

You can edit, replace or remove any tab part or add personal notes – all changes will be seen only by you.

Personal tabs can be accessed anytime from any device, even offline.
Learn more »
Give kudos to tab author, rate the tab!
1 2 3 4 5
comments
print report bad tab
1 comment total.
0 reply
[]i9 131 Nov 01, 2009 06:56 PM

On the first part of the 'breakdown', I think it's played:

G|------------------------------------
D|------------------------------------
A|---3322------66--66---------4--54---
D|-00----00-6h7--00--77-00-4h5-----50-

That was the only thing I noticed, otherwise, great tab, thanks.

guest
You may want to rate the tab now too:
select rating
Wanna post a correction for this tab? Suggest correction