Oops, an error
Loading. Please wait.
We have an official Bad Moon Rising tab made by UG professional guitarists. Check out the tab »
×
707,143 views 840 this week
17 commentsread comments
1 2 3 4 5
x 128
add to favorites
×
Save as Personal and add changes to this tab that will be seen only by you. Learn more ›
×
You can save this tab as Personal to edit and correct it or add notes. All changes will be seen only by you. Learn more »
launch autoscroll
font size
0
reset
how to read this tab
guitar tuner
backing track
0:00
0:00
edit
Autoscroll
slow
fast
+/-
esc
set tempo
stop
Author
Unregistered
Song:Bad moon rising
Artist: Creedende Clearwater Revival
CD:     Chronicle

I strongly suspect some alternate tuning here, but I'm tabbing it in
normal tuning anyway.


[Intro]

E|--2--2----2-2-2---0---3----2---2-2-2|---2-2-2--2-2-2--------------------|
B|--3--3----3-3-3---2---3----3---3-3-3|---3-3-3--3-3-3--------------------|
G|--2--2----2-2-2---2---0----2---3-4-2|---2-2-4--2-2-4--------------------|
D|------------------2---0--0----------|-----------------------------------|
A|----------------0-----2-------------|-----------------------------------|
e|--------------------3---------------|-----------------------------------|

D       A   G    D
I see a bad moon a rising

After above play the following:

[Measure 1]

E|-2-2-2--2-2-2--2-2--2---------------|-----------------------------------|
B|-3-3-3--3-3-3--3-3--3---------------|-----------------------------------|
G|-2-4-2--2-2-4--2-2--4---------------|-----------------------------------|
D|------------------------------------|-----------------------------------|
A|------------------------------------|-----------------------------------|
e|------------------------------------|-----------------------------------|

D     A       G      D
I see trouble on the way
Play measure 1 here again

D     A     G          D
I see earth quakes and lightnin'
And measure 1 ...

D     A   G     D
I see bad times today
Measure 1


[Chorus]

G
Don't go around tonight
           D                D
well, it's bound to take your life
A            G            D
There's a bad moon on the rise


[Measure 1]

E|-2-2-2--2-2-2--2-2--2---------------|-----------------------------------|
B|-3-3-3--3-3-3--3-3--3---------------|-----------------------------------|
G|-2-4-2--2-2-4--2-2--4---------------|-----------------------------------|
D|------------------------------------|-----------------------------------|
A|------------------------------------|-----------------------------------|
e|------------------------------------|-----------------------------------|


[Verse]

D      A         G    D
I hear hurricanes a blowin'

Right after above comes [Measure 2]

E|------------------------------------|-----------------------------------|
B|------------------------------------|-----------------------------------|
G|--4-----4r2----2--------------------|-----------------------------------|
D|----2h4----2h4----------------------|-----------------------------------|
A|------------------------------------|-----------------------------------|
e|------------------------------------|-----------------------------------|

D          A      G      D
I know the end is comin' soon

[Measure 2]

E|------------------------------------|-----------------------------------|
B|------------------------------------|-----------------------------------|
G|--4-----4r2----2--------------------|-----------------------------------|
D|----2h4----2h4----------------------|-----------------------------------|
A|------------------------------------|-----------------------------------|
e|------------------------------------|-----------------------------------|

D      A      G      D
I fell rivers over flowin'

[Measure 2]

E|------------------------------------|-----------------------------------|
B|------------------------------------|-----------------------------------|
G|--4-----4r2----2--------------------|-----------------------------------|
D|----2h4----2h4----------------------|-----------------------------------|
A|------------------------------------|-----------------------------------|
e|------------------------------------|-----------------------------------|

D             A       G        D
I hear the voice from rage and ruin

[Measure 1]

E|-2-2-2--2-2-2--2-2--2---------------|-----------------------------------|
B|-3-3-3--3-3-3--3-3--3---------------|-----------------------------------|
G|-2-4-2--2-2-4--2-2--4---------------|-----------------------------------|
D|------------------------------------|-----------------------------------|
A|------------------------------------|-----------------------------------|
e|------------------------------------|-----------------------------------|


[Chorus]

G
Don't go around tonight
           D                D
well, it's bound to take your life
A            G            D
There's a bad moon on the rise


[Solo]

E|-------------------2---2-2-2--2-2-2--2-2-2------------------2-2---5-2---|
B|-7-7---7-7--5--3---3---3-3-3--3-3-3--3-3-3--7-7--7-7--5--3--3---3-----3-|
G|-7-7---7-7--6--4---2---2-4-2--2-2-4--2-2-4--7-7--7-7--6--4--2-----------|
D|-7-7---7-7--7--5--------------------|-------7-7--7-7--7--5--0-----------|
A|-----------------0------------------|-----------------------------------|
e|------------------------------------|-----------------------------------|

E|--3-3-3r0---3r0--------------------5--5-5-5--3--3-3-3---2---------------|
B|--3-3----3-----3-3-3-3-3-3-3-3-3---5--5-7-5--3--3-5-3---3-measure 1 ----|
G|--0-0------------2h4-2-2-4r2-2-4--/6--6-6-6-/4--4-4-4---2---------------|
D|-----------------0-0-0-0-0-0-0-0----|-----------------0-----------------|
A|------------------------------------|-----------------------------------|
e|------------------------------------|-----------------------------------|

[Verse]

D        A        G      D
Hope you got your things together

[Measure 2]

E|------------------------------------|-----------------------------------|
B|------------------------------------|-----------------------------------|
G|--4-----4r2----2--------------------|-----------------------------------|
D|----2h4----2h4----------------------|-----------------------------------|
A|------------------------------------|-----------------------------------|
e|------------------------------------|-----------------------------------|

D            A          G       D
Hope you are quite prepared to die

[Measure 2]

E|------------------------------------|-----------------------------------|
B|------------------------------------|-----------------------------------|
G|--4-----4r2----2--------------------|-----------------------------------|
D|----2h4----2h4----------------------|-----------------------------------|
A|------------------------------------|-----------------------------------|
e|------------------------------------|-----------------------------------|

D          A              G     D
Looks like we're in for nasty weather

[Measure 2]

E|------------------------------------|-----------------------------------|
B|------------------------------------|-----------------------------------|
G|--4-----4r2----2--------------------|-----------------------------------|
D|----2h4----2h4----------------------|-----------------------------------|
A|------------------------------------|-----------------------------------|
e|------------------------------------|-----------------------------------|

D          A       G      D
One eye is thakin' for an eye

[Measure 2]

E|------------------------------------|-----------------------------------|
B|------------------------------------|-----------------------------------|
G|--4-----4r2----2--------------------|-----------------------------------|
D|----2h4----2h4----------------------|-----------------------------------|
A|------------------------------------|-----------------------------------|
e|------------------------------------|-----------------------------------|


[Chorus]

G
Don't go around tonight
           D                D
well, it's bound to take your life
A            G            D
There's a bad moon on the rise


"Let freedom ring"

"Oh Rock of ages do not crumble love is breathing still"
"Oh Lady Moonshine down, a little people magic if you will"

This tab was created with the help of an Amiga computer and the sampling
software Audiomaster IV, under the menu effects/duration/pitch the
frequency and the pitch can be doubled, thus enabling the program to play
back the sample at half the speed but with the original pitch.

-- 
raggen@hem1.passagen.se, Roger Olofsson
--


************************************

| h  Hammer-on
| r  Release
| /  Slide up

************************************

            
            
Suggest correction
Creating personal tab
Creating personal tab
You can edit any tab online and save it as your Personal.

You can edit, replace or remove any tab part or add personal notes – all changes will be seen only by you.

Personal tabs can be accessed anytime from any device, even offline.
Learn more »
comments
print report bad tab
17 comments total. Showing first comments.
+2 reply
Shabave 10 Jun 24, 2003 08:00 PM

Sweet tab, never seen anyone else tab the solo. Great work

0 reply
ducttape83 10 Nov 04, 2003 07:00 PM

I think you add 3rd on the high E string when he's changing up the D chord. That's how I've played it at least, and I've assumed to be right.

+3 reply
~Rock~Guitarist 50 Jul 24, 2004 08:00 PM

5 stars. great tab

guest
Wanna post a correction for this tab? Suggest correction