Oops, an error
Loading. Please wait.

Before You Accuse Me intro tab

33,864 views 30 this week
2 commentsread comments
1 2 3 4 5
x 13
add to favorites
×
Save as Personal and add changes to this tab that will be seen only by you. Learn more ›
×
You can save this tab as Personal to edit and correct it or add notes. All changes will be seen only by you. Learn more »
launch autoscroll
font size
0
reset
how to read this tab
guitar tuner
edit
Autoscroll
slow
fast
+/-
esc
set tempo
stop
Author
Difficulty
Unregistered
intermediate
[Intro]
e|---------0-3~4-3~4--------------------------------------------|
B|--0-3~4-------------5-3-0-5-3-0-------------------------------|
G|--------------------------------2-0-1-------------------------|
D|--------------------------------------2--2-----------------2--|
A|--------------------------------------------0-1-2----2-2/4----|
E|--------------------------------------------------------------|


************************************

| ~  Vibrato
| /  Slide up

************************************

            
            
Suggest correction
Creating personal tab
Creating personal tab
You can edit any tab online and save it as your Personal.

You can edit, replace or remove any tab part or add personal notes – all changes will be seen only by you.

Personal tabs can be accessed anytime from any device, even offline.
Learn more »
comments
print report bad tab
2 comments total.
0 reply
nilsson23 74 Jul 22, 2013 12:44 PM

First part is:

E |-------3-3-
B |-0-3-4-----
G |-----------....and then pick it up at the 5-3-0 part.

0 reply
LucaRFBisio 31 Feb 08, 2014 07:14 AM

I think that the 0 3 4 3 on the higher E string should be more like 3 bend and then you release and go to 5-3-0 part. The bends are more quarter tone bend rather than half tone but it doesn't make a big difference :)

guest
Wanna post a correction for this tab? Suggest correction