Oops, an error
Loading. Please wait.
We have an official Born On The Bayou tab made by UG professional guitarists. Check out the tab »
×

Born On The Bayou bass

version 3
version 3

Whole song

  • Other versions incomplete or not totally accurate.... Show more

Interactive

2,696 views 27 this week
1 commentread comment
1 2 3 4 5
x 5
add to favorites
×
Save as Personal and add changes to this tab that will be seen only by you. Learn more ›
×
You can save this tab as Personal to edit and correct it or add notes. All changes will be seen only by you. Learn more »
launch autoscroll
font size
0
reset
guitar tuner
backing track
0:00
0:00
edit
Autoscroll
slow
fast
+/-
esc
set tempo
stop
Author
Difficulty
About this tab version
Other versions incomplete or not totally accurate... Tittles wrong (ex Born on A Bayou)... No 5 stars rating... My version will correct the lot... Was this info helpful? Yes No
Creedence Clearwater 
Revival
Born on the Bayou
   Bad Moon Rising

Bsss Tab 

Tuning: EADG
Tempo: 120 bpm


Intro:
Guitar & Drums start: 00:01

Bass: 00:11
G|-9-9-----||------------|------------------|-------------|-
D|-----9---||------------|------------------|-------------|-
A|-------7-||-7~---------|-7x--7x---------9-|-7~----------|-
E|---------||----7-9-7-9-|--------7-9-7-9---|-----7-9-7-9-|-

G------------------|-------------|------------------|-
D------------------|-------------|------------------|-
A-7x--7x-----------|-7~----------|-7x--7x---------9-|-
E--------7-9-7-9-7-|-----7-9-7-9-|--------7-9-7-9---|-

Verse 1: 00:24
G|-------------|------------------|-------------|------------------|-
D|-------------|------------------|-------------|------------------|-
A|-7~----------|-7x--7x-----------|-7~----------|-7x--7x---------9-|-
E|-----7-9-7-9-|--------7-9-7-9-7-|-----7-9-7-9-|--------7-9-7-9---|-
Now when I was just a little boy
Standin' to my Daddy's knee,

G|-------------|------------------|-------------|-------------------|-
D|-------------|------------------|-------------|-----------6-7-8-9-|-
A|-7~----------|-7x--7x-----------|-7~----------|-7x--7x--7---------|-
E|-----7-9-7-9-|--------7-9-7-9-7-|-----7-9-7-9-|-------------------|-
My poppa said, "Son, don't let the man get you
Do what he done to me.

G|-------------|------------------|-------------|------------------|-
D|-------------|------------------|-------------|------------------|-
A|-7~----------|-7x--7x-----------|-7~----------|-7x--7x---------9-|-
E|-----7-9-7-9-|--------7-9-7-9-7-|-----7-9-7-9-|--------7-9-7-9---|-
Cause he'll get you,
'Cause he'll get you now, now."


Verse 2: 00:49
G|-------------|------------------|-------------|------------------|-
D|-------------|------------------|-------------|------------------|-
A|-7~----------|-7x--7x-----------|-7~----------|-7x--7x---------9-|-
E|-----7-9-7-9-|--------7-9-7-9-7-|-----7-9-7-9-|--------7-9-7-9---|-
And I can remember the fourth of July,
Runnin' through the backwoods bare.

G|-------------|------------------|-------------|------------------|-
D|-------------|------------------|-------------|------------------|-
A|-7~----------|-7x--7x-----------|-7~----------|-7x--7x-----------|-
E|-----7-9-7-9-|--------7-9-7-9-7-|-----7-9-7-9-|----------9x--9x--|-
And I can still hear my old hound dog barkin',
Chasin' down a hoodoo there.

G|---------------|----------------|-
D|---------------|----------------|-
A|-4-------------|-7x--7x---------|-
E|---5---7-9-7-9-|---------9x--7x-|-
Chasin' down a hoodoo there,

Chorus: 01:10                    (x3)
G---------------|----------------|---------------|------------------|-
D---------------|*---------------|--------------*|------------------|-
A-4-------------|*7x--7x---------|-4------------*|-7x--7x---------9-|-
E---5---7-9-7-9-|---------9x--7x-|---5---7-9-7-9-|--------7-9-7-9---|-
Born on the Bayou,
Born on the Bayou,
Born on the Bayou,
Yoh, yoh.

Solo 1: 01:22
G|------------|------------------|------------|------------------|-
D|------------|------------------|------------|------------------|-
A|-7~---------|-7x--7x-----------|-7~---------|-7x--7x---------9-|-
E|----7-9-7-9-|--------7-9-7-9-7-|----7-9-7-9-|--------7-9-7-9---|-

G|------------|------------------|------------|------------------|-
D|------------|------------------|------------|------------------|-
A|-7~---------|-7x--7x-----------|-7~---------|-7x--7x---------9-|-
E|----7-9-7-9-|--------7-9-7-9-7-|----7-9-7-9-|--------7-9-7-9---|-

G|------------|------------------|------------|------------------|-
D|------------|------------------|------------|------------------|-
A|-7~---------|-7x--7x-----------|-7~---------|-7x--7x---------9-|-
E|----7-9-7-9-|--------7-9-7-9-7-|----7-9-7-9-|--------7-9-7-9---|-

G|------------|------------------|------------|------------------|-
D|------------|------------------|------------|------------------|-
A|-7~---------|-7x--7x-----------|-7~---------|-7x--7x---------9-|-
E|----7-9-7-9-|--------7-9-7-9-7-|----7-9-7-9-|--------7-9-7-9---|-

G|------------|------------------|------------|------------------|-
D|------------|------------------|------------|-6-7-8------------|-
A|-7~---------|-7x--7x-----------|-7~---------|--------4-5-6-----|-
E|----7-9-7-9-|--------7-9-7-9-7-|----7-9-7-9-|------------------|-

G|------------|------------------|------------|------------------|-
D|------------|-6-7-8------------|------------|-6-7-8------------|-
A|------------|--------4-5-6-----|------------|--------4-5-6-----|-
E|----7-9-7-9-|------------------|----7-9-7-9-|------------------|-

G|------------|------------------|------------|------------------|-
D|------------|-6-7-8------------|------------|-6-7-8-9-0--------|-
A|------------|--------4-5-6-----|------------|-----------4-5-6--|-
E|----7-9-7-9-|------------------|----7-9-7-9-|------------------|-

G|------------|------------------|------------|------------------|-
D|------------|-6-7-8-9-0--------|------------|------------------|-
A|------------|-----------4-5-6--|-7------7---|------------------|-
E|----7-9-7-9-|------------------|-----7----0-|----7-9-7-9-------|-

G|------------|------------------|------------|------------------|-
D|------------|------------------|------------|------------------|-
A|-7------7---|------------------|-77-----7---|------------------|-
E|-----7----0-|----7-9-7-9-------|-----7----0-|----7-9-7-9-------|-

G|------------|------------------|------------|------------------|-
D|------------|------------------|------------|------------------|-
A|-77-----7---|------------------|-7----------|-7x--7x-----------|-
E|-----7----0-|----7-9-7-9-------|----7-9-7-9-|--------7-9-7-9-7-|-

G|-------------|------------------|-
D|-------------|------------------|-
A|-7~----------|-7x--7x---------9-|-
E|-----7-9-7-9-|--------7-9-7-9---|-


Verse 3: 02:35
G|-------------|------------------|-------------|------------------|-
D|-------------|------------------|-------------|------------------|-
A|-7~----------|-7x--7x-----------|-7~----------|-7x--7x---------9-|-
E|-----7-9-7-9-|--------7-9-7-9-7-|-----7-9-7-9-|--------7-9-7-9---|-
Wish I was back on the Bayou
Rollin' with some Cajun Queen.

G|-------------|------------------|-------------|------------------|-
D|-------------|------------------|-------------|------------------|-
A|-7~----------|-7x--7x-----------|-7~----------|-7x--7x-----------|-
E|-----7-9-7-9-|--------7-9-7-9-7-|-----7-9-7-9-|----------9x--9x--|-
Wishin' I were a fast freight train
Just a-chooglin' on down to New Orleans.


Chorus: 02:52
G---------------|------------------|-------------|------------------|-
D---------------|------------------|-------------|------------------|-
A-9-7-----------|-7x--7x-----------|-7-----------|-7x--7x---------9-|-
E-------7-9-7-9-|--------7-9-7-9-7-|-----7-9-7-9-|--------7-9-7-9---|-
Born on the Bayou,
Born on the Bayou,

G-------------|------------------|-------------|------------------|
D-------------|------------------|-------------|------------------|
A-7-----------|-7x--7x-----------|-7-----------|-7x--7x---------9-|
E-----7-9-7-9-|--------7-9-7-9-7-|-----7-9-7-9-|--------7-9-7-9---|
Born on the Bayou,
Do it, do it, do it, do it.
Oh, Lord.


2nd Solo: 03:08
G|------------------------|------------------------|-
D|------------------------|------------------------|-
A|-7------7---------------|-7-7----7---------------|-
E|------7----0---7-9-7-9--|------7----0---7-9-7-9--|-

G|------------------------|------------------------|-
D|------------------------|------------------------|-
A|-7-7----7---------------|-7-7----7---------------|-
E|------7----0---7-9-7-9--|------7----0---7-9-7-9--|-

G|------------------------|------------------------|-
D|------------------------|------------------------|-
A|-7-7----7---------------|-7-7----7---------------|-
E|------7----0---7-9-7-9--|------7----0---7-9-7-9--|-
Oh, get back, boy.

G|------------------------|------------|------------------------|-
D|------------------------|------------|------------------------|-
A|-7-7----7---------------|-55--4----7-|-------------0--4--5--7-|-
E|------7----0---7-9-7-9--|--------5---|-0--4--5--7-------------|-

G|-------------|------------------|-------------|------------------|-
D|-------------|------------------|-------------|------------------|-
A|-7~----------|-7x--7x-----------|-7~----------|-7x--7x-----------|-
E|-----7-9-7-9-|--------7-9-7-9-7-|-----7-9-7-9-|--------7-9-7-9-7-|-


G|------------------|-------------|----------------|---------------|-
D|------------------|-------------|----------------|-9-------------|-
A|-7x--7x-----------|-7-----------|-7x--7x---------|---7-----------|-
E|--------7-9-7-9-7-|-----7-9-7-9-|---------7x--9x-|-------7-9-7-9-|-

G|------------------|-------------|------------------|--------------|-
D|------------------|-------------|------------------|--------------|-
A|-7x--7x-----------|-7x----------|-7x--7x-----------|-7x-----------|-
E|--------7-9-7-9-7-|-----7-7--9--|--------7-9-7-9-7-|------7-7--9--|-

G------------------|
D------------------|
A-7x--7x-----------|
E--------7-9-7-9-7-|

Verse 4: 04:06
G|-------------|------------------|-------------|------------------|-
D|-------------|------------------|-------------|------------------|-
A|-7~----------|-7x--7x-----------|-7~----------|-7x--7x-----------|-
E|-----7-9-7-9-|--------7-9-7-9-7-|-----7-9-7-9-|--------7-9-7-9-7-|-
I can remember the fourth of July,
Runnin' through the backwoods bare.

G|-------------|------------------|-------------|------------------|-
D|-------------|------------------|-------------|------------------|-
A|-7~----------|-7x--7x-----------|-7~----------|-7x--7x-----------|-
E|-----7-9-7-9-|--------7-9-7-9-7-|-----7-9-7-9-|----------9x--9x--|-
And I can still hear my old hound dog barkin',
Chasin' down a hoodoo there,

G---------------|----------------|-
D---------------|----------------|-
A---7-----------|-7x--7x---------|-
E-5-----7-9-7-9-|---------9x--7x-|-
Chasin' down a hoodoo there.


Chorus:
G---------------|----------------|--------------|----------------|-
D---------------|----------------|--------------|----------------|-
A-4-------------|-7x--7----------|--------------|-7x--7x---------|-
E---5---7-9-7-9-|---------9x--7x-|--5---7-9-7-9-|---------9x--7x-|-
Born on the Bayou,
Born on the Bayou,

G--------------|----------------|---------------|------------------|-
D--------------|----------------|---------------|------------------|-
A--------------|-7x--7x---------|-4-------------|-7x--7x-----------|-
E--5---7-9-7-9-|---------9x--7x-|---5---7-9-7-9-|--------7-9-7-9-7-|-
Born on the Bayou,
Alright! 
Do, do, do, do

Outro: 04:43 (fade out...)
G-------------|----------------|---------------|----------9-9---9---9-|-
D-------------|----------------|-9-------------|--------9-----9---9---|-
A-7-----------|-7x--7x---------|---7-----------|-7x--7x---------------|-
E-----7-9-7-9-|---------7x--9x-|-------7-9-7-9-|----------------------|-

G-------------|-----------------|-------------|----------------|-
D-------------|-----------------|-------------|----------------|-
A-7-----------|-7x--7x----------|-------------|-7x--7x---------|-
E-----7-9-7-9-|----------7x--9x-|-5---7-9-7-9-|--------4-5-7-5-|-
                                                                               Mm-mm-mmm, oh..

G-------------|-----------------|------9-9---9----|------------|-
D-------------|---------6-7-8-9-|----9-----9----9-|------------|-
A-7-----------|-7x--7x----------|-7---------------|-7x---------|-
E-----7-9-7-9-|-----------------|-----------------|----4-5-7-5-|- Fading out...

End: 05:15

            
            
Suggest correction
Creating personal tab
Creating personal tab
You can edit any tab online and save it as your Personal.

You can edit, replace or remove any tab part or add personal notes – all changes will be seen only by you.

Personal tabs can be accessed anytime from any device, even offline.
Learn more »
comments
print report bad tab
1 comment total.
0 reply
etootill99 10 Sep 22, 2017 03:18 PM

what a cool bass line. Goes up when others would down.

guest
You may want to rate the tab now too:
select rating
Wanna post a correction for this tab? Suggest correction