Oops, an error
Loading. Please wait.
We have an official Fortunate Son tab made by UG professional guitarists. Check out the tab »
×

Fortunate Son intro tab

74,563 views 114 this week
7 commentsread comments
1 2 3 4 5
x 32
add to favorites
×
Save as Personal and add changes to this tab that will be seen only by you. Learn more ›
×
You can save this tab as Personal to edit and correct it or add notes. All changes will be seen only by you. Learn more »
launch autoscroll
font size
0
reset
how to read this tab
guitar tuner
backing track
0:00
0:00
edit
Autoscroll
slow
fast
+/-
esc
set tempo
stop
FORTUNATE SON - Creedence Clearwater Revival
                                
Tabbed by: Jakollee
Email: guitarjak@hotmail.com

Tuning: D (D-G-C-F-A-D) (like standard, but a whole-step down)

To play this song, John Fogerty tunes his guitar down a whole step (in standard tuning) 
so he can play as if it's in the key of A, but sing it in the key of G.

[Intro]
D|--------5~--------3~---------2--------0------------------------------------|
A|---------------------------------------------------------------------------|
F|----5/6-------3/4--------0h2------0h2--------------------------------------|  Play
C|---------------------------------------------------------------------------|  twice
G|----------------------------------------3p0--------------------------------|
D|---------------------------------------------------------------------------|

[Instrumental Interlude] (drone on open A string in between higher notes):
D|---------------------------------------------------------------------------|
A|---8-----7----7\3--------3/5---------8-------7-------7\3-------3/5---------|
F|---9-----8----8\4--------4/6---------9-------8-------8\4-------4/6---------|
C|---------------------------------------------------------------------------|
G|-----0-0---0-0----0-0-0------0-0-0-----0-0-0---0-0-0-----0-0-0-------------|
D|---------------------------------------------------------------------------|

************************************

| ~  Vibrato
| /  Slide up
| h  Hammer-on
| p  Pull-off
| \  Slide down

************************************

            
            
Suggest correction
Creating personal tab
Creating personal tab
You can edit any tab online and save it as your Personal.

You can edit, replace or remove any tab part or add personal notes – all changes will be seen only by you.

Personal tabs can be accessed anytime from any device, even offline.
Learn more »
comments
print report bad tab
7 comments total. Showing first comments.
+1 reply
devoye97 10 Jan 06, 2010 04:05 PM

whoa dude this sucks

0 reply
guitar hero217 10 Oct 30, 2010 08:21 AM

this is like the opposite of the song

0 reply
floyd-pinkerton 267 Nov 06, 2014 12:25 PM

this is so bad I chucked up chunks

guest
You may want to rate the tab now too:
select rating
Wanna post a correction for this tab? Suggest correction