Oops, an error
Loading. Please wait.
We have an official Green River tab made by UG professional guitarists. Check out the tab »
×
5,433 views 39 this week
1 commentread comment
1 2 3 4 5
x 9
add to favorites
×
Save as Personal and add changes to this tab that will be seen only by you. Learn more ›
×
You can save this tab as Personal to edit and correct it or add notes. All changes will be seen only by you. Learn more »
launch autoscroll
font size
0
reset
guitar tuner
backing track
0:00
0:00
edit
Autoscroll
slow
fast
+/-
esc
set tempo
stop
Author
Difficulty
Tuning: EADG
Tempo: 131 bpm


INTRO:.....Guitar.......  Bass: 00:07
G|-----------|-----------|-----------|------------|
D|-----------|-----------|-----------|---7--5-----|
A|-----------|-----------|-7--7----7-|-7-----7----|
E|-----------|-----------|-----7--7--|------------|

Verse1 : 00:12
G|-----------|-----------|-----------|------------|
D|-----------|---7--5----|-----------|---7--5-----|
A|-7--7----7-|-7-----7---|-7--7----7-|-7-----7----| X2
E|-----7--7--|-----------|-----7--7--|------------|
Well, take me back down where cool water flows, y'all.
Let me remember things I love.

part2:00:28
G|-----------|-----------|------------|------------|
D|-----------|-----------|------------|------------|
A|-7--7----7-|-7---3--3--|--3--3------|------------|
E|-----7--7--|---7-----3-|-3-----3--5-|-5-0--0-5---|
Stoppin' at the log where catfish bite,
Walkin' along the river road at night,
Barefoot girls dancin' in the moonlight.
G|-----------|-----------|------------|
D|-----------|-----------|---7--5-----|
A|-------7---|-7--7----7-|-7-----7----|
E|-3-/-7-----|-----7--7--|------------|

Verse2 : 00:41
G|-----------|-----------|-----------|------------|
D|-----------|---7--5----|-----------|---7--5-----|
A|-7--7----7-|-7-----7---|-7--7----7-|-7-----7----| X2
E|-----7--7--|-----------|-----7--7--|------------|
I can hear the bullfrog callin' me, oh.
Wonder if my rope's still hangin' to the tree.

part2: 00:55
G|-----------|-----------|------------|------------|
D|-----------|-----------|------------|------------|
A|-7--7----7-|-7---3--3--|--3--3------|------------|
E|-----7--7--|---7-----3-|-3-----3--5-|-5-0--0-5---|
Love to kick my feet 'way down the shallow water,
Shoo fly, dragonfly, get back t'mother.
Pick up a flat rock; skip it across Green River.
G|-----------|-----------|------------|
D|-----------|-----------|---7--5-----|
A|-------7---|-7--7----7-|-7-----7----|
E|-3-/-7-----|-----7--7--|------------|

Well!

Instrumental : 01:12
G|-----------|------------|
D|-----------|---7--5-----|
A|-7--7----7-|-7-----7----| X3 only this time
E|-----7--7--|------------|

part2:01:21
G|-----------|-----------|------------|------------|
D|-----------|-----------|------------|------------|
A|-7--7----7-|-7---3--3--|--3--3------|------------|
E|-----7--7--|---7-----3-|-3-----3--5-|-5-0--0-5---|

G|-----------|-----------|------------|
D|-----------|-----------|---7--5-----|
A|-------7---|-7--7----7-|-7-----7----|
E|-3-/-7-----|-----7--7--|------------|

Verse3 : 01:32
G|-----------|-----------|-----------|------------|
D|-----------|---7--5----|-----------|---7--5-----|
A|-7--7----7-|-7-----7---|-7--7----7-|-7-----7----| X2
E|-----7--7--|-----------|-----7--7--|------------|
Up at Cody's camp I spent my days, oh,
With flat-car riders and cross-tie walkers.

part2:01:45
G|-----------|-----------|------------|------------|
D|-----------|-----------|------------|------------|
A|-7--7----7-|-7---3--3--|--3--3------|------------|
E|-----7--7--|---7-----3-|-3-----3--5-|-5-0--0-5---|
Old Cody, Junior took me over,
Said, "You're gonna find the world is smold'rin',
And if you get lost, come on home to Green River."
G|-----------|-----------|------------|
D|-----------|-----------|---7--5-----|
A|-------7---|-7--7----7-|-7-----7----|
E|-3-/-7-----|-----7--7--|------------|

Well!

Finale : 02:00
G|-----------|-----------|-----------|------------|
D|-----------|---7--5----|-----------|---7--5-----|
A|-7--7----7-|-7-----7---|-7--7----7-|-7-----7----| xx(fading out)
E|-----7--7--|-----------|-----7--7--|------------|

Come on home.


End: 02:36

            
            
Suggest correction
Creating personal tab
Creating personal tab
You can edit any tab online and save it as your Personal.

You can edit, replace or remove any tab part or add personal notes – all changes will be seen only by you.

Personal tabs can be accessed anytime from any device, even offline.
Learn more »
comments
print report bad tab
1 comment total.
0 reply
Denway 10 Jul 09, 2015 03:01 PM

Nice job...easy to follow

guest
You may want to rate the tab now too:
select rating
Wanna post a correction for this tab? Suggest correction