Oops, an error
Loading. Please wait.
We have an official Hey Tonight tab made by UG professional guitarists. Check out the tab »
×
40,022 views 21 this week
1 commentread comment
1 2 3 4 5
x 7
add to favorites
×
Save as Personal and add changes to this tab that will be seen only by you. Learn more ›
×
You can save this tab as Personal to edit and correct it or add notes. All changes will be seen only by you. Learn more »
launch autoscroll
font size
0
reset
how to read this tab
guitar tuner
backing track
0:00
0:00
edit
Autoscroll
slow
fast
+/-
esc
set tempo
stop
Author
Guitar Intro: Hey Tonight

E-12--9------0-0---0--12--9------0-0---0--12--9------0-0---0-|
B-12----12-0----------12----12-0----------12----12-0---------|
G----------------9-------------------9-------------------9---|
D------------------------------------------------------------|
A------------------------------------------------------------|
E------------------------------------------------------------|


E----0---0---0---0---0---0---0------------------------------|
B-----------------------------------------------------------|
G-----------------------------------------------------------|
D--6---4---2---4---6---4---2---4----------------------------|
A-----------------------------------------------------------|
E-----------------------------------------------------------|

Solo

E-----0--0----0--0-----0---0---0---0---| (X2)
B---9-—10--9s--5-----0-----------------|
G------------------------2---1---------|
D--------------------------------2-----|
A--------------------------------------|
E--------------------------------------|

I looked everywhere trying to find the intro to this song, so I decided to figure it out 
best I can. I think I have it pretty close, it's hard to hear with the distortion and 
strings. The first part of the intro sounds best if you just use a pick and not try to
pick the open strings with your finger. Feel free to contact me if you have another way
of this.

            
            
Suggest correction
Creating personal tab
Creating personal tab
You can edit any tab online and save it as your Personal.

You can edit, replace or remove any tab part or add personal notes – all changes will be seen only by you.

Personal tabs can be accessed anytime from any device, even offline.
Learn more »
comments
print report bad tab
1 comment total.
0 reply
oyvind 15 Aug 24, 2007 10:40 AM

I have a strong feeling this has too many notes... All the 0s make it sound... wrongish :P Maybe if you played
e-12-9---12-12-12-12-12
B-12---12---12-12-12-12(the last 4 repeated 12s should be alternated up and down so you play the 12s down-up-down-up...
Instead... Sounds more correct, but still sorta wrong...

The other part of the intro should perhaps be played with its 0s on the B string.

guest
You may want to rate the tab now too:
select rating
Wanna post a correction for this tab? Suggest correction