Oops, an error
Loading. Please wait.

Looking Out My Back Door bass

version 2
version 2

Whole song

23,491 views 12 this week
1 commentread comment
1 2 3 4 5
x 5
add to favorites
×
Save as Personal and add changes to this tab that will be seen only by you. Learn more ›
×
You can save this tab as Personal to edit and correct it or add notes. All changes will be seen only by you. Learn more »
launch autoscroll
font size
0
reset
guitar tuner
edit
Autoscroll
slow
fast
+/-
esc
set tempo
stop
Author
Difficulty
Unregistered
[Intro]
G|-------------------------------------|
D|--3---3------------8---3-------------|
A|1---1-----5---5--6---1-----3------0--|  X1
E|--------3---3------------1---11--3---|

[Verse]
G|-------------------------------------|
D|--3---3------------8---3-------------|
A|1---1-----5---5--6---1-----3------0--|  X5
E|--------3---3------------1---11--3---|

G|---------------------------------------------------------------------|
D|-----------8---3-------------------3---3------------8---3------------|
A|--3---3--6---1----3---3---5---3--1---1-----5---5--6---1-----3-------0|
E|1---1-----------1---1---3---1------------3---3------------1---11--3--|

[Solo]
G|-------------------------------------|
D|--3---3------------8---3-------------|
A|1---1-----5---5--6---1-----3------0--|  X2
E|--------3---3------------1---11--3---|

G|---------------------------------------------------------------------|
D|-----------8---3-------------------3---3------------8---3------------|
A|--3---3--6---1----3---3---5---3--1---1-----5---5--6---1-----3-------0|
E|1---1-----------1---1---3---1------------3---3------------1---11--3--|

BREAK FOR 4 SECONDS

[SPECIAL]
G|------------------------------------|
D|---------------5-------------5------|
A|--5---5---3--3-----7---5---3-----5--|  X1
E|3---3---1--------5---3---------3----|

G|------------------------------------|
D|--5---5------------10---5-----------|
A|3---3-----7---7--8----3-----5-------|  X2 second time is slower
E|--------5---5-------------3---33--02|

[Outro]
G|----------------------|
D|--------5-------------|
A|--3---3-----5--3---3--|  X1
E|1---------3------5----|

Thats it, there is no special way to play just how the notes are shown.

            
            
Suggest correction
Creating personal tab
Creating personal tab
You can edit any tab online and save it as your Personal.

You can edit, replace or remove any tab part or add personal notes – all changes will be seen only by you.

Personal tabs can be accessed anytime from any device, even offline.
Learn more »
comments
print report bad tab
1 comment total.
0 reply
xx409xx 10 Feb 05, 2010 07:07 AM

G -----------------------------------------|
INTRO D ---3---3------------(8)---3--------------|
A -1---1-----5---5--(6)---1-----3------0---| X1
E ---------3---3--------------1---11--3----|

This Eb should be played in 1st position like this:

G --------------------(3)------------------|
INTRO D ---3---3----------(1)-----3--------------|
A -1---1-----5---5--------1-----3------0---| X1
E ---------3---3--------------1---11--3----|

The changes are in parenthesis. This removes the need to shift up to the 6th fret, and generally gives a more accurate sound. Because, why shift out of position for two notes, when the entire line is in 1st position?

guest
Wanna post a correction for this tab? Suggest correction