Oops, an error
Loading. Please wait.

Sweet Hitch-Hiker bass

version 1
version 1

Whole song

Interactive

2,906 views 1 this week
no commentswrite comment
1 2 3 4 5
1 last vote to show rating
add to favorites
×
Save as Personal and add changes to this tab that will be seen only by you. Learn more ›
×
You can save this tab as Personal to edit and correct it or add notes. All changes will be seen only by you. Learn more »
launch autoscroll
font size
0
reset
guitar tuner
edit
Autoscroll
slow
fast
+/-
esc
set tempo
stop
Difficulty
intermediate
Creedence Clearwater Revival ~ Sweet Hitch-Hiker
Bass TAB

Tabbed by: Kennet R. Pedersen, Norway

Intro:
G---------------|---------------|---------------|
D---------------|---------------|---------------|
A--5----5-5-----|--5----5-5-----|--5----5-5-----|
E-----------7-5-|-----------7-5-|-----------7-5-|

Verse 1:
G---------------|---------------|---------------| (x2)
D*--------------|---------------|--------------*|
A*-5----5-5-----|--5----5-5-----|--------------*|
E-----------7-5-|-----------7-5-|--3----3-3-0-2-|

G---------------|---------------|---------------|
D---------------|---------------|---------------|
A-----------2-3-|--5----5-5-----|--3----3-3-----|
E--3----3-3-----|-----------7-5-|-----------0-2-|

G-----------------|-----------------|---------------|
D-----------------|---------------3-|-----------5---|
A-----------------|-------------5---|--3----3-3---3-|
E--3----3-3-3-0-2-|--3----3-3-3-----|---------------|

G-----------------|-----------|-----------------|
D-------------5-7-|-----------|-----------------|
A---------5-7-----|--5--5-5-5-|--5-5----5-5-----|
E--5----8---------|-----------|-------------2-3-|

Chorus:
G------------------|------------------|-----------------|
D------------------|------------------|-----------------|
A------------------|------------------|---------------3-|
E--5-5---5-5-5---5-|--5-5---5-5-5---5-|--3-3----3-3-5---|

G-----------------|------------------|------------------|----------------|
D-----------------|------------------|----------------5-|----------------|
A--5-5----5-5-----|------------------|--------------5---|----------------|
E-------------2-3-|--5-5---5-5-5---5-|--5-5---5-5-5-----|-3--------------|

Verse 2: / Verse 3:
G---------------|---------------|---------------| (x2)
D*--------------|---------------|--------------*|
A*-5----5-5-----|--5----5-5-----|--------------*|
E-----------7-5-|-----------7-5-|--3----3-3-0-2-|

G---------------|---------------|---------------|-----------------|
D---------------|---------------|---------------|-----------------|
A-----------2-3-|--5----5-5-----|--3----3-3-----|-----------------|
E--3----3-3-----|-----------7-5-|-----------0-2-|--3----3-3-3-0-2-|

G-----------------|---------------|-----------------|
D---------------3-|-----------5---|-------------5-7-|
A-------------5---|--3----3-3---3-|---------5-7-----|
E--3----3-3-3-----|---------------|--5----8---------|

G-----------|------------------|
D-----------|----------4-5-6-7-|
A--5--5-5-5-|--5-5---5---------|
E-----------|------------------|

Chorus (2): / Chorus (3):
G------------------|------------------|-----------------|
D------------------|------------------|-----------------|
A------------------|------------------|-------------2-3-|
E--5-5---5-5-5---5-|--5-5---5-5-5---5-|--3-3----3-3-----|

G---------------|------------------|------------------|----------------|
D---------------|------------------|----------------5-|----------------|
A--5----5-5-----|------------------|--------------5---|----------------|
E-----------2-3-|--5-5---5-5-5---5-|--5-5---5-5-5-----|-3--------------|

Solo:
G---------------|---------------|-------------------|-------------------|
D---------------|---------------|-------------------|-----------------3-|
A--5----5-5---5-|--3------------|-------------------|---------------5---|
E-----------7---|----0--1--2--3-|--3-3----3-3-3-0-2-|--3-3----3-3-3-----|

G-------------------|------------------|--------------|----------7--7-|
D---------------5---|----------------5-|--------------|---------------|
A--3-3----3-3-3---3-|--------------7---|--5--5-5-5--5-|--5-5--5-------|
E-------------------|--5-5---5-5-5-----|--------------|---------------|

Chorus (fade out...):
G------------------|-------------------|-----------------|---------------|
D*-----------------|-----------------5-|-----------------|--------------*|
A*-----------------|-------------5-7---|-------------2-3-|--5----5-5----*|
E--5-5---5-5-5---5-|--5-5----5-7-------|--3----3-3-3-----|-----------2-3-|

Song structure:

Intro
Verse 1
Chorus
Verse 2
Chorus (2)
Solo
Verse 3
Chorus (3)
Chorus (fade out...)

            
            
Suggest correction
Creating personal tab
Creating personal tab
You can edit any tab online and save it as your Personal.

You can edit, replace or remove any tab part or add personal notes – all changes will be seen only by you.

Personal tabs can be accessed anytime from any device, even offline.
Learn more »
Give kudos to tab author, rate the tab!
1 2 3 4 5
comments
print report bad tab
guest
Wanna post a correction for this tab? Suggest correction