Oops, an error
Loading. Please wait.

The Midnight Special bass

9,706 views 39 this week
no commentswrite comment
1 2 3 4 5
x 4
add to favorites
×
Save as Personal and add changes to this tab that will be seen only by you. Learn more ›
×
You can save this tab as Personal to edit and correct it or add notes. All changes will be seen only by you. Learn more »
launch autoscroll
font size
0
reset
guitar tuner
edit
Autoscroll
slow
fast
+/-
esc
set tempo
stop
Difficulty
intermediate
Creedence Clearwater Revival - The Midnight Special

Note: I got help from my bass teacher (who got it by ear) to get the 100% correct bass 
for this song! All the other bass TABs I have found for this song are complete 
That's why I made this which is the original TAB... Good luck!

(Intro is played by the lead guitar)

1st Chorus:
G---------------------------|---------------------------|
D--3---5--------3---5-------|---------------------------|
A---------5--5---------5--5-|--3---5--------3---5-------|
E---------------------------|---------5--5---------5--5-|

G---------------------------|---------------------------|
D--5---7----------5-7-------|---------------------------|
A---------7-----7------7--7-|--3---5--------3---5-------|
E---------------------------|---------5--5---------5--5-|

G---------------------------|---------------------------|
D--3---5--------3---5-------|---------------------------|
A---------5--5---------5--5-|--3---5--------3---5-------|
E---------------------------|---------5--5---------5--5-|

G---------------------------|---------------------------|
D--5---7--------5---7-------|---------------------------|
A---------7--7---------7--7-|--3---5--------3---5-------|
E---------------------------|---------5--5---------5--5-|

Verse:
G---------------------------|---------------------------|
D*-3---5--------3---5-------|---------------------------|
A*--------5--5---------5--5-|--3---5--------3---5-------|
E---------------------------|---------5--5---------5--5-|

G---------------------------|---------------------------| (x2)
D--5---7--------5---7-------|--------------------------*|
A---------7--7---------7--7-|--3---5--------3---5------*|
E---------------------------|---------5--5---------5--5-|

Chorus: = (Played like Verse)

Final Chorus:

G---------------------------|---------------------------|
D--3---5--------3---5-------|---------------------------|
A---------5--5---------5--5-|--3---5--------3---5-------|
E---------------------------|---------5--5---------5--5-|

G---------------------------|---------------------------|
D--5---7----------5-7-------|---------------------------|
A---------7-----7------7--7-|--3---5--------3---5-------|
E---------------------------|---------5--5---------5--5-|

G---------------------------|---------------------------|
D--3---5--------3---5-------|---------------------------|
A---------5--5---------5--5-|--3---5--------3---5-------|
E---------------------------|---------5--5---------5--5-|

G---------------------------|---------------------------|
D--5---7--------5---7-------|---------------------------|
A---------7--7---------7--7-|--3---5--------------------|
E---------------------------|---------------------------|

Outro:
G-------------------------------------------------------|
D-------------------------------------------------------|
A--------3---5------------------------------------------|
E--5--5---------5--5------------------------------------|

Song structure:
(Intro)
1st Chorus
Verse
Chorus
Verse
Chorus
Final Chorus
Outro

            
            
Suggest correction
Creating personal tab
Creating personal tab
You can edit any tab online and save it as your Personal.

You can edit, replace or remove any tab part or add personal notes – all changes will be seen only by you.

Personal tabs can be accessed anytime from any device, even offline.
Learn more »
comments
print report bad tab
guest
Wanna post a correction for this tab? Suggest correction