Oops, an error
Loading. Please wait.
We have an official Up Around The Bend tab made by UG professional guitarists. Check out the tab »
×
8,229 views 1 this week
1 commentread comment
1 2 3 4 5
2 more votes to show rating
add to favorites
×
Save as Personal and add changes to this tab that will be seen only by you. Learn more ›
×
You can save this tab as Personal to edit and correct it or add notes. All changes will be seen only by you. Learn more »
launch autoscroll
font size
0
reset
how to read this tab
guitar tuner
backing track
0:00
0:00
edit
Autoscroll
slow
fast
+/-
esc
set tempo
stop
Difficulty
******************************************************
** This version adds the riff that fades ad the end.**
** Thanks to those that already provided the rest.  **
******************************************************

D
There's a place up ahead and I'm goin'
A                  A7       D
Just as fast as my feet can fly.
D
Come away, come away if you're goin',
A                 A7     D
Leave the sinkin' ship behind.
G         D      A
C'mon the risin' wind,
       G         D        A
We're goin' up around the bend. Whoooh.

[...]

Git 1   measure 1

E-----------10----------------------|----------10-----------------------|
B--------------10-----10------------|-------------10----10--------------|
G------9h11-------11----------------|-----9h11-------11-----------------|
D---0-------------------------------|--0--------------------------------|
A-----------------------------------|-----------------------------------|
e-----------------------------------|-----------------------------------|

Git 1   measure 3

E----------10-----------------------|----------5------------------------|
B-------------10----10--------------|------------5---5------------------|
G-----9h11-------11-----------------|-----4h6------6--------------------|
D---0-------------------------------|-----------------------------------|
A-----------------------------------|--0 -------------------------------|
e-----------------------------------|-----------------------------------|

Git 1   Ending (fades)

E-----------------------------------|------------------------------------|
B-------10---------10--------10-----|-------10--------10--------10-------|
G--9h11-------9h11------9h11----11--|--9h11------9h11------9h11----11—-7-|
D-----------------------------------|------------------------------------|
A-----------------------------------|------------------------------------|
e-----------------------------------|------------------------------------|


Chords:

G:   3       D:  x       A:  x      A7:  0
     2           x           0           0 
     0           0           2           2
     0           2           2           2
     3           3           2           2 
     3           2           0           3


            
            
Suggest correction
Creating personal tab
Creating personal tab
You can edit any tab online and save it as your Personal.

You can edit, replace or remove any tab part or add personal notes – all changes will be seen only by you.

Personal tabs can be accessed anytime from any device, even offline.
Learn more »
Give kudos to tab author, rate the tab!
1 2 3 4 5
comments
print report bad tab
1 comment total.
0 reply
|Guitarhead| 268 May 24, 2008 01:48 AM

Alright tab. Begining is almost correct (you put one too many 9h11 bars in. It should be behind the 4h6 bar), but the rest is completely wrong except the chords. (pitch is too high)

guest
Wanna post a correction for this tab? Suggest correction