Oops, an error
Loading. Please wait.
We have an official Up Around The Bend tab made by UG professional guitarists. Check out the tab »
×
32,908 views 27 this week
2 commentsread comments
1 2 3 4 5
1 last vote to show rating
add to favorites
×
Save as Personal and add changes to this tab that will be seen only by you. Learn more ›
×
You can save this tab as Personal to edit and correct it or add notes. All changes will be seen only by you. Learn more »
launch autoscroll
font size
0
reset
how to read this tab
guitar tuner
backing track
0:00
0:00
edit
Autoscroll
slow
fast
+/-
esc
set tempo
stop
Author
Difficulty
CCR – Up around the bend


E---------------10-------------------------------10----------------|
B--------------------10------10----------------------10--------10--|
G-------9/11------------11--------------9/11-------------11--------|
D---0---------------------------------0----------------------------|
A------------------------------------------------------------------|
E------------------------------------------------------------------|


E------------------5-----------------------------10----------------|
B---------------------5--------5----------------------10--------10-|
G-----------4/6----------6---------------9/11-------------11-------|
D------------------------------------0-----------------------------|
A-----0------------------------------------------------------------|
E------------------------------------------------------------------|x2

[D]There's a place up ahead and I'm goin'
[A]just as fast as my feet can [D]fly.
[D]Come away, come away if you're goin',
[A]leave the sinkin' [A7]ship be[D]hind.

[G] c’mon the [D]risin' [A7]wind,
we're [G]goin' up a[D]round the [A]bend. Wh[A7]oooh.


[D]Bring a song and a smile for the banjo,
[A]better get while the gettin's [D]good.
[D]Hitch a ride to the end of the highway
[A]where the neons [A7]turn to [D]wood.

[G]c'mon the [D]risin' [A7]wind,
we're [G]goin' up a[D]round the [A]bend.

[D]You can ponder perpetual motion,
[A]fiz your mind for a crystal [D]day.
[D]Always time for a good conversation,
[A]there's an ear for [A7]what you [D]say.

[G]c'mon the [D]risin' [A7]wind,
we're [G]goin' up a[D]round the [A]bend.

E---------------10-------------------------------10----------------|
B--------------------10------10----------------------10--------10--|
G-------9/11------------11--------------9/11-------------11--------|
D---0---------------------------------0----------------------------|
A------------------------------------------------------------------|
E------------------------------------------------------------------|


E------------------5-----------------------------10----------------|
B---------------------5--------5----------------------10--------10-|
G-----------4/6----------6---------------9/11-------------11-------|
D------------------------------------0-----------------------------|
A-----0------------------------------------------------------------|
E------------------------------------------------------------------|

E----------------------------------------------------------------|
B----------------------------------------------------------------|
G----------7-9b11-9p7----------9-6-------------------------------|
D------7h9------------9-7-9b11-----9-7---------------------------|
A--10------------------------------------------------------------|
E----------------------------------------------------------------|

E---------------------------------------------------------------------|
B---------------------------------------------------------------------|
G----------7-9b11-9p7----------9-6------------------------------------|
D------7h9------------9-7-9b11-----9-7^-7^-7^b9-7---------------------|
A--10-----------------------------------------------------------------|
E---------------------------------------------------------------------|

D]Catch a ride to the end of the highway
[A]and we'll meet by the big red [D]tree.
[D]There's a place up ahead and I'm goin',
[A]come along, come [A7]along with [D]me.

[G]c'mon the [D]risin' [A7]wind,
we're [G]goin' up a[D]round the [A]bend.

E------5-----5-----5---------------5-----5-----------------------|
B--6-7---6-7---6-7---7---------5-7---5-7---7---------------------|
G--------------------------------------------7-------------------|
D----------------------------------------------------------------|
A----------------------------------------------------------------|
E----------------------------------------------------------------|x3



            
            
Suggest correction
Creating personal tab
Creating personal tab
You can edit any tab online and save it as your Personal.

You can edit, replace or remove any tab part or add personal notes – all changes will be seen only by you.

Personal tabs can be accessed anytime from any device, even offline.
Learn more »
Give kudos to tab author, rate the tab!
1 2 3 4 5
comments
print report bad tab
2 comments total.
0 reply
|Guitarhead| 268 May 24, 2008 01:51 AM

Nice one! Begginings right, except for it's layout. Chords are correct and ending, but you missed out a big chunk after the intro.

0 reply
|Guitarhead| 268 May 24, 2008 01:52 AM

Oh actually, the layout is right at the begging, sorry. the rest I said is true though.

guest
You may want to rate the tab now too:
select rating
Wanna post a correction for this tab? Suggest correction