Oops, an error
Loading. Please wait.

Poison Pens tab

by Creeper
307 views 3 this week
2 commentsread comments
1 2 3 4 5
x 5
add to favorites
×
Save as Personal and add changes to this tab that will be seen only by you. Learn more ›
×
You can save this tab as Personal to edit and correct it or add notes. All changes will be seen only by you. Learn more »
launch autoscroll
font size
0
reset
how to read this tab
guitar tuner
edit
Autoscroll
slow
fast
+/-
esc
set tempo
stop
About this tab version
Simplified for one guitar (second guitar option for first part). Was this info helpful? Yes No
[Intro]
(Guitar 1)
D#|---------------|---------------|---------------|---------------|
A#|---------------|---------------|---------------|---------------|
F#|---------------|---------------|---------------|---------------|
C#|7-7-7-7-7-7-7-7|7-7-7-7-7-7-7-7|7-7-7-7-7-7-7-7|7--------------|
G#|7-7-7-7-7-7-7-7|7-7-7-7-7-7-7-7|7-7-7-7-7-7-7-7|7--------------|
D#|5-5-5-5-5-5-5-5|5-5-5-5-5-5-5-5|5-5-5-5-5-5-5-5|5--------------|

(Guitar 2)
D#|---------------|---------------|---------------|---------------|
A#|---------------|---------------|---------------|---------------|
F#|2TP------------|4TP------------|5TP-----7TP----|9--------------|
C#|---------------|---------------|---------------|---------------|
G#|---------------|---------------|---------------|---------------|
D#|---------------|---------------|---------------|---------------|

or

D#|---------------|---------------|---------------|---------------|
A#|---------------|---------------|---------------|---------------|
F#|---------------|---------------|5-5-5-5-7-7-7-7|9--------------|
C#|7-7-7-7-7-7-7-7|9-9-9-9-9-9-9-9|7-7-7-7-7-7-7-7|7--------------|
G#|7-7-7-7-7-7-7-7|7-7-7-7-7-7-7-7|7-7-7-7-7-7-7-7|7--------------|
D#|5-5-5-5-5-5-5-5|5-5-5-5-5-5-5-5|5-5-5-5-5-5-5-5|5--------------|

[Verse 1]
D#|---------------|---------------|---------------|---------------|
A#|---------------|---------------|---------------|---------------|
F#|--------7---5--|---------------|--------5---5--|---------------|
C#|7-7-7-7-7---5--|5-5-5-5-5-5-5-5|3-3-3-3-5---5--|7-7-7-7-7-7-7-7|
G#|7-7-7-7-5---3--|5-5-5-5-5-5-5-5|3-3-3-3-3---3--|7-7-7-7-7-7-7-7|
D#|5-5-5-5--------|3-3-3-3-3-3-3-3|1-1-1-1--------|5-5-5-5-5-5-5-5|

D#|---------------|---------------|---------------|---------------|
A#|---------------|---------------|---------------|---------------|
F#|--------7---5--|---------------|---------------|---------------|
C#|7-7-7-7-7---5--|5-5-5-5-5-5-5-5|3-3-3-3-3-3-3-3|2-2-2-2-2-2-2-2|
G#|7-7-7-7-5---3--|5-5-5-5-5-5-5-5|3-3-3-3-3-3-3-3|2-2-2-2-2-2-2-2|
D#|5-5-5-5--------|3-3-3-3-3-3-3-3|1-1-1-1-1-1-1-1|0-0-0-0-0-0-0-0|

D#|---------------|---------------|---------------|---------------|
A#|---------------|---------------|---------------|---------------|
F#|--------7---5--|---------------|--------5---5--|---------------|
C#|7-7-7-7-7---5--|5-5-5-5-5-5-5-5|3-3-3-3-5---5--|7-7-7-7-7-7-7-7|
G#|7-7-7-7-5---3--|5-5-5-5-5-5-5-5|3-3-3-3-3---3--|7-7-7-7-7-7-7-7|
D#|5-5-5-5--------|3-3-3-3-3-3-3-3|1-1-1-1--------|5-5-5-5-5-5-5-5|

D#|---------------|---------------|---------------|---------------|
A#|---------------|---------------|---------------|---------------|
F#|--------7---5--|---------------|---------------|---------------|
C#|7-7-7-7-7---5--|5-5-5-5-5-5-5-5|3-3-3-3-3-3-3-3|3-3-3-3-3-3-3-3|
G#|7-7-7-7-5---3--|5-5-5-5-5-5-5-5|3-3-3-3-3-3-3-3|3-3-3-3-3-3-3-3|
D#|5-5-5-5--------|3-3-3-3-3-3-3-3|1-1-1-1-1-1-1-1|1-1-1-1-1-1-1-1|

D#|---------------|---------------|
A#|---------------|---------------|
F#|---------------|---------------|
C#|2--------------|2--------------|
G#|2--------------|2--------------|
D#|0--------------|0--------------|

[Chorus]
D#|---------------|---------------|---------------|---------------|
A#|---------------|---------------|---------------|---------------|
F#|---------------|---------------|---------------|---------------|
C#|7-7-7-7-7-7-7-7|7-7-7-7-7-7-7-7|5-5-5-5-5-5-5-5|5-5-5-5-5-5-5-5|
G#|7-7-7-7-7-7-7-7|7-7-7-7-7-7-7-7|5-5-5-5-5-5-5-5|5-5-5-5-5-5-5-5|
D#|5-5-5-5-5-5-5-5|5-5-5-5-5-5-5-5|3-3-3-3-3-3-3-3|3-3-3-3-3-3-3-3|

D#|---------------|---------------|---------------|---------------|
A#|---------------|---------------|---------------|---------------|
F#|5-5-5-5-5-5-5-5|5-5-5-5-5-5-5-5|---------------|---------------|
C#|5-5-5-5-5-5-5-5|5-5-5-5-5-5-5-5|7-5---7---x-x-x|7-5---7---x-x-x|
G#|3-3-3-3-3-3-3-3|3-3-3-3-3-3-3-3|7-5---7---x-x-x|7-5---7---x-x-x|
D#|---------------|---------------|5-3---5---x-x-x|7-5---7---x-x-x|

D#|---------------|---------------|---------------|---------------|
A#|---------------|---------------|---------------|---------------|
F#|---------------|---------------|---------------|---------------|
C#|7-7-7-7-7-7-7-7|7-7-7-7-7-7-7-7|5-5-5-5-5-5-5-5|5-5-5-5-5-5-5-5|
G#|7-7-7-7-7-7-7-7|7-7-7-7-7-7-7-7|5-5-5-5-5-5-5-5|5-5-5-5-5-5-5-5|
D#|5-5-5-5-5-5-5-5|5-5-5-5-5-5-5-5|3-3-3-3-3-3-3-3|3-3-3-3-3-3-3-3|

D#|---------------|---------------|---------------|---------------|
A#|---------------|---------------|---------------|---------------|
F#|5-5-5-5-5-5-5-5|5-5-5-5-5-5-5-5|---------------|---------------|
C#|5-5-5-5-5-5-5-5|5-5-5-5-5-5-5-5|7-5---7---x-x-x|7-5---7---x-x-x|
G#|3-3-3-3-3-3-3-3|3-3-3-3-3-3-3-3|7-5---7---x-x-x|7-5---7---x-x-x|
D#|---------------|---------------|5-3---5---x-x-x|7-5---7---x-x-x|

[Pre-Verse]
D#|---------------|15TP-----------|
A#|---------------|---------------|
F#|---------------|---------------|
C#|7--------------|---------------|
G#|5--------------|---------------|
D#|5--------------|---------------|

[Verse 2]
D#|---------------|---------------|---------------|---------------|
A#|---------------|---------------|---------------|---------------|
F#|--------7---5--|---------------|--------5---5--|---------------|
C#|7-7-7-7-7---5--|5-5-5-5-5-5-5-5|3-3-3-3-5---5--|7-7-7-7-7-7-7-7|
G#|7-7-7-7-5---3--|5-5-5-5-5-5-5-5|3-3-3-3-3---3--|7-7-7-7-7-7-7-7|
D#|5-5-5-5--------|3-3-3-3-3-3-3-3|1-1-1-1--------|5-5-5-5-5-5-5-5|

D#|---------------|---------------|---------------|---------------|
A#|---------------|---------------|---------------|---------------|
F#|--------7---5--|---------------|---------------|---------------|
C#|7-7-7-7-7---5--|5-5-5-5-5-5-5-5|3-3-3-3-3-3-3-3|2-2-2-2-2-2-2-2|
G#|7-7-7-7-5---3--|5-5-5-5-5-5-5-5|3-3-3-3-3-3-3-3|2-2-2-2-2-2-2-2|
D#|5-5-5-5--------|3-3-3-3-3-3-3-3|1-1-1-1-1-1-1-1|0-0-0-0-0-0-0-0|

D#|---------------|---------------|---------------|---------------|
A#|---------------|---------------|---------------|---------------|
F#|--------7---5--|---------------|--------5---5--|---------------|
C#|7-7-7-7-7---5--|5-5-5-5-5-5-5-5|3-3-3-3-5---5--|7-7-7-7-7-7-7-7|
G#|7-7-7-7-5---3--|5-5-5-5-5-5-5-5|3-3-3-3-3---3--|7-7-7-7-7-7-7-7|
D#|5-5-5-5--------|3-3-3-3-3-3-3-3|1-1-1-1--------|5-5-5-5-5-5-5-5|

D#|---------------|---------------|---------------|---------------|
A#|---------------|---------------|---------------|---------------|
F#|--------7---5--|---------------|---------------|---------------|
C#|7-7-7-7-7---5--|5-5-5-5-5-5-5-5|3-3-3-3-3-3-3-3|3-3-3-3-3-3-3-3|
G#|7-7-7-7-5---3--|5-5-5-5-5-5-5-5|3-3-3-3-3-3-3-3|3-3-3-3-3-3-3-3|
D#|5-5-5-5--------|3-3-3-3-3-3-3-3|1-1-1-1-1-1-1-1|1-1-1-1-1-1-1-1|

D#|---------------|---------------|
A#|---------------|---------------|
F#|---------------|---------------|
C#|2--------------|2--------------|
G#|2--------------|2--------------|
D#|0--------------|0--------------|

[Chorus]
D#|---------------|---------------|---------------|---------------|
A#|---------------|---------------|---------------|---------------|
F#|---------------|---------------|---------------|---------------|
C#|7-7-7-7-7-7-7-7|7-7-7-7-7-7-7-7|5-5-5-5-5-5-5-5|5-5-5-5-5-5-5-5|
G#|7-7-7-7-7-7-7-7|7-7-7-7-7-7-7-7|5-5-5-5-5-5-5-5|5-5-5-5-5-5-5-5|
D#|5-5-5-5-5-5-5-5|5-5-5-5-5-5-5-5|3-3-3-3-3-3-3-3|3-3-3-3-3-3-3-3|

D#|---------------|---------------|---------------|---------------|
A#|---------------|---------------|---------------|---------------|
F#|5-5-5-5-5-5-5-5|5-5-5-5-5-5-5-5|---------------|---------------|
C#|5-5-5-5-5-5-5-5|5-5-5-5-5-5-5-5|7-5---7---x-x-x|7-5---7---x-x-x|
G#|3-3-3-3-3-3-3-3|3-3-3-3-3-3-3-3|7-5---7---x-x-x|7-5---7---x-x-x|
D#|---------------|---------------|5-3---5---x-x-x|7-5---7---x-x-x|

D#|---------------|---------------|---------------|---------------|
A#|---------------|---------------|---------------|---------------|
F#|---------------|---------------|---------------|---------------|
C#|7-7-7-7-7-7-7-7|7-7-7-7-7-7-7-7|5-5-5-5-5-5-5-5|5-5-5-5-5-5-5-5|
G#|7-7-7-7-7-7-7-7|7-7-7-7-7-7-7-7|5-5-5-5-5-5-5-5|5-5-5-5-5-5-5-5|
D#|5-5-5-5-5-5-5-5|5-5-5-5-5-5-5-5|3-3-3-3-3-3-3-3|3-3-3-3-3-3-3-3|

D#|---------------|---------------|---------------|---------------|
A#|---------------|---------------|---------------|---------------|
F#|5-5-5-5-5-5-5-5|5-5-5-5-5-5-5-5|---------------|---------------|
C#|5-5-5-5-5-5-5-5|5-5-5-5-5-5-5-5|7-5---7---x-x-x|7-5---7---x-x-x|
G#|3-3-3-3-3-3-3-3|3-3-3-3-3-3-3-3|7-5---7---x-x-x|7-5---7---x-x-x|
D#|---------------|---------------|5-3---5---x-x-x|7-5---7---x-x-x|

[Bridge]
D#|---------------|---------------|---------------|---------------|
A#|---------------|---------------|---------------|---------------|
F#|---------------|---------------|---------------|---------------|
C#|7--------------|2-----------3--|---------------|---------------|
G#|5--------------|--------3------|---------------|2-----------0--|
D#|5--------------|---------------|---------------|--------3------|

D#|---------------|---------------|---------------|---------------|
A#|---------------|---------------|---------------|---------------|
F#|---------------|---------------|---------------|---------------|
C#|---------------|2-----------3--|---------------|---------------|
G#|---------------|--------3------|---------------|2-----------0--|
D#|---------------|---------------|---------------|--------3------|

D#|---------------|---------------|---------------|---------------|
A#|---------------|---------------|---------------|---------------|
F#|---------------|---------------|---------------|---------------|
C#|---------------|2-----------3--|---------------|---------------|
G#|---------------|--------3------|---------------|2-----------0--|
D#|---------------|---------------|---------------|--------3------|

D#|---------------|---------------|---------------|---------------|
A#|---------------|---------------|---------------|---------------|
F#|---------------|---------------|---------------|---------------|
C#|---------------|2-----------3--|---------------|---------------|
G#|---------------|--------3------|---------------|2-----------0--|
D#|---------------|---------------|---------------|--------3------|

D#|---------------|---------------|---------------|---------------|
A#|---------------|---------------|---------------|---------------|
F#|---------------|---------------|---------------|---------------|
C#|---------------|2-----------3--|---------------|---------------|
G#|---------------|--------3------|---------------|2-----------0--|
D#|---------------|---------------|---------------|--------3------|

D#|---------------|---------------|---------------|---------------|
A#|---------------|---------------|---------------|---------------|
F#|---------------|---------------|---------------|---------------|
C#|---------------|2-----------3--|---------------|---------------|
G#|---------------|--------3------|---------------|2-----------0--|
D#|---------------|---------------|---------------|--------3------|

D#|---------------|---------------|---------------|---------------|
A#|---------------|---------------|---------------|---------------|
F#|---------------|---------------|---------------|---------------|
C#|---------------|2-----------3--|---------------|---------------|
G#|---------------|--------3------|---------------|2-----------0--|
D#|---------------|---------------|---------------|--------3------|

D#|---------------|---------------|---------------|---------------|
A#|---------------|---------------|---------------|---------------|
F#|---------------|---------------|---------------|---------------|
C#|---------------|2-----------3--|---------------|---------------|
G#|---------------|--------3------|---------------|2-----------0--|
D#|---------------|---------------|---------------|--------3------|

D#|---------------|---------------|---------------|---------------|
A#|---------------|---------------|---------------|---------------|
F#|---------------|---------------|---------------|---------------|
C#|---------------|2-----------3--|---------------|---------------|
G#|---------------|--------3------|---------------|2-----------0--|
D#|---------------|---------------|---------------|--------3------|

D#|---------------|---------------|---------------|---------------|
A#|---------------|---------------|---------------|---------------|
F#|---------------|---------------|---------------|---------------|
C#|---------------|2-----------3--|---------------|---------------|
G#|---------------|--------3------|---------------|2-----------0--|
D#|---------------|---------------|---------------|--------3------|

D#|---------------|---------------|---------------|---------------|
A#|---------------|---------------|---------------|---------------|
F#|---------------|---------------|---------------|---------------|
C#|---------------|2-----------3--|---------------|---------------|
G#|---------------|--------3------|---------------|2-----------0--|
D#|---------------|---------------|---------------|--------3------|

D#|---------------|---------------|---------------|---------------|
A#|---------------|---------------|---------------|---------------|
F#|---------------|---------------|---------------|---------------|
C#|---------------|2-----------3--|---------------|---------------|
G#|---------------|--------3------|---------------|2-----------0--|
D#|---------------|---------------|---------------|--------3------|

(Guitar 1)
D#|---------------|---------------|---------------|---------------|
A#|---------------|---------------|---------------|---------------|
F#|---------------|---------------|---------------|---------------|
C#|7-7-7-7-7-7-7-7|7-7-7-7-7-7-7-7|7-7-7-7-7-7-7-7|7--------------|
G#|7-7-7-7-7-7-7-7|7-7-7-7-7-7-7-7|7-7-7-7-7-7-7-7|7--------------|
D#|5-5-5-5-5-5-5-5|5-5-5-5-5-5-5-5|5-5-5-5-5-5-5-5|5--------------|

(Guitar 2)
D#|---------------|---------------|---------------|---------------|
A#|---------------|---------------|---------------|---------------|
F#|2TP------------|4TP------------|5TP-----7TP----|9--------------|
C#|---------------|---------------|---------------|---------------|
G#|---------------|---------------|---------------|---------------|
D#|---------------|---------------|---------------|---------------|

or

D#|---------------|---------------|---------------|---------------|
A#|---------------|---------------|---------------|---------------|
F#|---------------|---------------|5-5-5-5-7-7-7-7|9--------------|
C#|7-7-7-7-7-7-7-7|9-9-9-9-9-9-9-9|7-7-7-7-7-7-7-7|7--------------|
G#|7-7-7-7-7-7-7-7|7-7-7-7-7-7-7-7|7-7-7-7-7-7-7-7|7--------------|
D#|5-5-5-5-5-5-5-5|5-5-5-5-5-5-5-5|5-5-5-5-5-5-5-5|5--------------|

[Chorus]
D#|---------------|---------------|---------------|---------------|
A#|---------------|---------------|---------------|---------------|
F#|---------------|---------------|---------------|---------------|
C#|7-7-7-7-7-7-7-7|7-7-7-7-7-7-7-7|5-5-5-5-5-5-5-5|5-5-5-5-5-5-5-5|
G#|7-7-7-7-7-7-7-7|7-7-7-7-7-7-7-7|5-5-5-5-5-5-5-5|5-5-5-5-5-5-5-5|
D#|5-5-5-5-5-5-5-5|5-5-5-5-5-5-5-5|3-3-3-3-3-3-3-3|3-3-3-3-3-3-3-3|

D#|---------------|---------------|---------------|---------------|
A#|---------------|---------------|---------------|---------------|
F#|5-5-5-5-5-5-5-5|5-5-5-5-5-5-5-5|---------------|---------------|
C#|5-5-5-5-5-5-5-5|5-5-5-5-5-5-5-5|7-5---7---x-x-x|7-5---7---x-x-x|
G#|3-3-3-3-3-3-3-3|3-3-3-3-3-3-3-3|7-5---7---x-x-x|7-5---7---x-x-x|
D#|---------------|---------------|5-3---5---x-x-x|7-5---7---x-x-x|

D#|---------------|---------------|---------------|---------------|
A#|---------------|---------------|---------------|---------------|
F#|---------------|---------------|---------------|---------------|
C#|7-7-7-7-7-7-7-7|7-7-7-7-7-7-7-7|5-5-5-5-5-5-5-5|5-5-5-5-5-5-5-5|
G#|7-7-7-7-7-7-7-7|7-7-7-7-7-7-7-7|5-5-5-5-5-5-5-5|5-5-5-5-5-5-5-5|
D#|5-5-5-5-5-5-5-5|5-5-5-5-5-5-5-5|3-3-3-3-3-3-3-3|3-3-3-3-3-3-3-3|

D#|---------------|---------------|---------------|---------------|
A#|---------------|---------------|---------------|---------------|
F#|5-5-5-5-5-5-5-5|5-5-5-5-5-5-5-5|---------------|---------------|
C#|5-5-5-5-5-5-5-5|5-5-5-5-5-5-5-5|7-5---7---x-x-x|7-5---7---x-x-x|
G#|3-3-3-3-3-3-3-3|3-3-3-3-3-3-3-3|7-5---7---x-x-x|7-5---7---x-x-x|
D#|---------------|---------------|5-3---5---x-x-x|7-5---7---x-x-x|

[Outro]
D#|---------------|
A#|---------------|
F#|---------------|
C#|7--------------|
G#|7--------------|
D#|5--------------|

************************************

| x   Dead note
| TP  Tremelo picking

************************************

            
            
Suggest correction
Creating personal tab
Creating personal tab
You can edit any tab online and save it as your Personal.

You can edit, replace or remove any tab part or add personal notes – all changes will be seen only by you.

Personal tabs can be accessed anytime from any device, even offline.
Learn more »
comments
print report bad tab
2 comments total.
0 reply
codyrobbins01 10 Apr 04, 2017 12:29 AM

YESS THANK YOU! YOU ARE AMAZING!!

0 reply
ameliaxblackw1 141 Apr 04, 2017 04:15 AM

Ahh!! Thank you so so much :)

guest
You may want to rate the tab now too:
select rating
Wanna post a correction for this tab? Suggest correction