Oops, an error
Loading. Please wait.

Valentine tab

by Creeper
307 views 3 this week
no commentswrite comment
1 2 3 4 5
1 last vote to show rating
add to favorites
×
Save as Personal and add changes to this tab that will be seen only by you. Learn more ›
×
You can save this tab as Personal to edit and correct it or add notes. All changes will be seen only by you. Learn more »
launch autoscroll
font size
0
reset
how to read this tab
guitar tuner
edit
Autoscroll
slow
fast
+/-
esc
set tempo
stop
About this tab version
This is just for one guitarist but still sounds pretty similar to the original. Tuned half a step down. Was this info helpful? Yes No
Here you go guys. There are 2 guitarists in the  band, so as this is just for 1 guitarist I've kinda 
compressed the parts, but I think it still sounds pretty similar to the original. For the little riffs I
called the intros, you don't have to play the second string or even the third string if you think it sounds 
better without them.

[Intro 1]
                                                  
D#|3-3-3-2-2-2-0-0|3-3-3-2-2-2-0-0|5-5-5-3-3-3-0-0|7-7-7/8------\7|
A#|0-0-0-0-0-0-0-0|0-0-0-0-0-0-0-0|0-0-0-0-0-0-0-0|0-0-0-0-0-0-0-0|
F#|0-0-0-0-0-0-0-0|0-0-0-0-0-0-0-0|0-0-0-0-0-0-0-0|0-0-0-0-0-0-0-0|
C#|---------------|---------------|---------------|---------------|
G#|---------------|---------------|---------------|---------------|
D#|---------------|---------------|---------------|---------------| 

[Intro 2]

D#|3-3-3-2-2-2-0-0|3-3-3-2-2-2-0-0|5-5-5-3-3-3-0-0|7-7-7-7-7------|
A#|0-0-0-0-0-0-0-0|0-0-0-0-0-0-0-0|0-0-0-0-0-0-0-0|0-0-0-0-0------|
F#|0-0-0-0-0-0-0-0|0-0-0-0-0-0-0-0|0-0-0-0-0-0-0-0|0-0-0-0-0------|
C#|---------------|---------------|---------------|---------------|
G#|---------------|---------------|---------------|---------------|
D#|---------------|---------------|---------------|---------------|   

[Intro 1]
                                                  
D#|3-3-3-2-2-2-0-0|3-3-3-2-2-2-0-0|5-5-5-3-3-3-0-0|7-7-7/8------\7|
A#|0-0-0-0-0-0-0-0|0-0-0-0-0-0-0-0|0-0-0-0-0-0-0-0|0-0-0-0-0-0-0-0|
F#|0-0-0-0-0-0-0-0|0-0-0-0-0-0-0-0|0-0-0-0-0-0-0-0|0-0-0-0-0-0-0-0|
C#|---------------|---------------|---------------|---------------|
G#|---------------|---------------|---------------|---------------|
D#|---------------|---------------|---------------|---------------| 

[Intro 2]

D#|3-3-3-2-2-2-0-0|3-3-3-2-2-2-0-0|5-5-5-3-3-3-0-0|7-7-7-7-7------|
A#|0-0-0-0-0-0-0-0|0-0-0-0-0-0-0-0|0-0-0-0-0-0-0-0|0-0-0-0-0------|
F#|0-0-0-0-0-0-0-0|0-0-0-0-0-0-0-0|0-0-0-0-0-0-0-0|0-0-0-0-0------|
C#|---------------|---------------|---------------|---------------|
G#|---------------|---------------|---------------|---------------|
D#|---------------|---------------|---------------|---------------|   

[Pre-Verse]

D#|3-3-3-3-3-3-3-3|3-3-3-3-3-3-3-3|3-3-3-3-3-3-3-3|3-3-3-3-3-3-3-3|
A#|0-0-0-0-0-0-0-0|0-0-0-0-0-0-0-0|0-0-0-0-0-0-0-0|0-0-0-0-0-0-0-0|
F#|---------------|---------------|---------------|---------------|
C#|---------------|---------------|---------------|---------------|
G#|---------------|---------------|---------------|---------------|
D#|---------------|---------------|---------------|---------------|
     .............................................
     PM

[Verse]

D#|---------------|-----------------------|---------------|-----------------------|
A#|---------------|-----------------------|---------------|-----------------------|
F#|5-5-5-5-5-5-5-5|12-12-12-12-12-12-12-12|7-7-7-7-7-7-7-7|12-12-12-12-12-12-12-12|  
C#|5-5-5-5-5-5-5-5|12-12-12-12-12-12-12-12|7-7-7-7-7-7-7-7|12-12-12-12-12-12-12-12|       
G#|3-3-3-3-3-3-3-3|10-10-10-10-9--9--9--9-|5-5-5-5-5-5-5-5|10-10-10-10-9--9--9--9-|
D#|---------------|-----------------------|---------------|-----------------------|
                                                                                          x2    
D#|-------------------------|-------------------------|
A#|-------------------------|-------------------------|
F#|----------------------5-5|-------------------------|
C#|5-5-5-5-5-5-5-5-5-5-5-5-5|5-5-5-5-5-5-5-5-5-5-5----|                                      
G#|3-3-3-3-3-3-3-3-3-3-3-3-3|5-5-5-5-5-5-5-5-5-5-5----|
D#|3-3-3-3-3-3-3-3-3-3-3----|3-3-3-3-3-3-3-3-3-3-3----|

[Pre-Chorus]

D#|---------------|---------------|---------------|---------------|
A#|---------------|---------------|---------------|---------------|
F#|9--------------|7--------------|---------------|---------------|
C#|9--------------|7--------------|5-5-5-5-5-5-5-5|7-7-7-7-7------|
G#|7--------------|5--------------|5-5-5-5-5-5-5-5|7-7-7-7-7------|
D#|---------------|---------------|3-3-3-3-3-3-3-3|5-5-5-5-5------|
                                   ........................
                                   PM
[Chorus]

D#|---------------|---------------|---------------|---------------|
A#|---------------|7-7-7-7-7-7-7-7|---------------|5-5-5-5-x-3-3-3|
F#|4-4-4-4-4-4-4-4|7-7-7-7-7-7-7-7|5-5-5-5-5-5-5-5|5-5-5-5-x-4-4-4|
C#|5-5-5-5-5-5-5-5|7-7-7-7-7-7-7-7|7-7-7-7-7-7-7-7|5-5-5-5-x-5-5-5|                   x2  
G#|5-5-5-5-5-5-5-5|5-5-5-5-5-5-5-5|7-7-7-7-7-7-7-7|3-3-3-3-x-5-5-5|
D#|3-3-3-3-3-3-3-3|---------------|5-5-5-5-5-5-5-5|---------------|

[Intro 2]

D#|3-3-3-2-2-2-0-0|3-3-3-2-2-2-0-0|5-5-5-3-3-3-0-0|7-7-7-7-7------|
A#|0-0-0-0-0-0-0-0|0-0-0-0-0-0-0-0|0-0-0-0-0-0-0-0|0-0-0-0-0------|
F#|0-0-0-0-0-0-0-0|0-0-0-0-0-0-0-0|0-0-0-0-0-0-0-0|0-0-0-0-0------|
C#|---------------|---------------|---------------|---------------|
G#|---------------|---------------|---------------|---------------|
D#|---------------|---------------|---------------|---------------|    

[Verse]

D#|---------------|-----------------------|---------------|-----------------------|
A#|---------------|-----------------------|---------------|-----------------------|
F#|5-5-5-5-5-5-5-5|12-12-12-12-12-12-12-12|7-7-7-7-7-7-7-7|12-12-12-12-12-12-12-12|  
C#|5-5-5-5-5-5-5-5|12-12-12-12-12-12-12-12|7-7-7-7-7-7-7-7|12-12-12-12-12-12-12-12|       
G#|3-3-3-3-3-3-3-3|10-10-10-10-9--9--9--9-|5-5-5-5-5-5-5-5|10-10-10-10-9--9--9--9-|
D#|---------------|-----------------------|---------------|-----------------------|
                                                                                          x2    
D#|-------------------------|-------------------------|
A#|-------------------------|-------------------------|
F#|----------------------5-5|-------------------------|
C#|5-5-5-5-5-5-5-5-5-5-5-5-5|5-5-5-5-5-5-5-5-5-5-5----|                                      
G#|3-3-3-3-3-3-3-3-3-3-3-3-3|5-5-5-5-5-5-5-5-5-5-5----|
D#|3-3-3-3-3-3-3-3-3-3-3----|3-3-3-3-3-3-3-3-3-3-3----|

[Pre-Chorus]

D#|---------------|---------------|---------------|---------------|
A#|---------------|---------------|---------------|---------------|
F#|9--------------|7--------------|---------------|---------------|
C#|9--------------|7--------------|5-5-5-5-5-5-5-5|7-7-7-7-7------|
G#|7--------------|5--------------|5-5-5-5-5-5-5-5|7-7-7-7-7------|
D#|---------------|---------------|3-3-3-3-3-3-3-3|5-5-5-5-5------|
                                   ........................
                                   PM
[Chorus]

D#|---------------|---------------|---------------|---------------|
A#|---------------|7-7-7-7-7-7-7-7|---------------|5-5-5-5-x-3-3-3|
F#|4-4-4-4-4-4-4-4|7-7-7-7-7-7-7-7|5-5-5-5-5-5-5-5|5-5-5-5-x-4-4-4|
C#|5-5-5-5-5-5-5-5|7-7-7-7-7-7-7-7|7-7-7-7-7-7-7-7|5-5-5-5-x-5-5-5|                   x2  
G#|5-5-5-5-5-5-5-5|5-5-5-5-5-5-5-5|7-7-7-7-7-7-7-7|3-3-3-3-x-5-5-5|
D#|3-3-3-3-3-3-3-3|---------------|5-5-5-5-5-5-5-5|---------------|

[Intro 2]

D#|3-3-3-2-2-2-0-0|3-3-3-2-2-2-0-0|5-5-5-3-3-3-0-0|7-7-7-7-7------|
A#|0-0-0-0-0-0-0-0|0-0-0-0-0-0-0-0|0-0-0-0-0-0-0-0|0-0-0-0-0------|
F#|0-0-0-0-0-0-0-0|0-0-0-0-0-0-0-0|0-0-0-0-0-0-0-0|0-0-0-0-0------|
C#|---------------|---------------|---------------|---------------|
G#|---------------|---------------|---------------|---------------|
D#|---------------|---------------|---------------|---------------|  


[Intro 1]
                                                  
D#|3-3-3-2-2-2-0-0|3-3-3-2-2-2-0-0|5-5-5-3-3-3-0-0|7-7-7/8------\7|
A#|0-0-0-0-0-0-0-0|0-0-0-0-0-0-0-0|0-0-0-0-0-0-0-0|0-0-0-0-0-0-0-0|
F#|0-0-0-0-0-0-0-0|0-0-0-0-0-0-0-0|0-0-0-0-0-0-0-0|0-0-0-0-0-0-0-0|
C#|---------------|---------------|---------------|---------------|
G#|---------------|---------------|---------------|---------------|
D#|---------------|---------------|---------------|---------------|  

[Intro 2]

D#|3-3-3-2-2-2-0-0|3-3-3-2-2-2-0-0|5-5-5-3-3-3-0-0|7-7-7-7-7------|
A#|0-0-0-0-0-0-0-0|0-0-0-0-0-0-0-0|0-0-0-0-0-0-0-0|0-0-0-0-0------|
F#|0-0-0-0-0-0-0-0|0-0-0-0-0-0-0-0|0-0-0-0-0-0-0-0|0-0-0-0-0------|
C#|---------------|---------------|---------------|---------------|
G#|---------------|---------------|---------------|---------------|
D#|---------------|---------------|---------------|---------------|  

[Alternative Chorus]

D#|---------------|------------------|---------------|--------------------|
A#|---------------|--------7/8---7--7|---------------|--------------------|
F#|----4-------4--|----7-------7-----|----5-------5--|----5----5/7--5--4--|
C#|--5---5---5---5|--7---7-----------|--7---7---7---7|--5---5------------5|                x2    
G#|5-------5------|5-----------------|7-------7------|3-------------------|
D#|---------------|------------------|---------------|--------------------|

[Chorus]

D#|---------------|---------------|---------------|---------------|
A#|---------------|7-7-7-7-7-7-7-7|---------------|5-5-5-5-x-3-3-3|
F#|4-4-4-4-4-4-4-4|7-7-7-7-7-7-7-7|5-5-5-5-5-5-5-5|5-5-5-5-x-4-4-4|
C#|5-5-5-5-5-5-5-5|7-7-7-7-7-7-7-7|7-7-7-7-7-7-7-7|5-5-5-5-x-5-5-5|                   x2  
G#|5-5-5-5-5-5-5-5|5-5-5-5-5-5-5-5|7-7-7-7-7-7-7-7|3-3-3-3-x-5-5-5|
D#|3-3-3-3-3-3-3-3|---------------|5-5-5-5-5-5-5-5|---------------|

[Ending]

D#|3---|
A#|3---|
F#|4---|
C#|5---|       
G#|5---|
D#|3---|

************************************

| x   Dead note
| /   Slide up
| \   Slide down
| PM  Palm mute

************************************ 

            
            
Suggest correction
Creating personal tab
Creating personal tab
You can edit any tab online and save it as your Personal.

You can edit, replace or remove any tab part or add personal notes – all changes will be seen only by you.

Personal tabs can be accessed anytime from any device, even offline.
Learn more »
Give kudos to tab author, rate the tab!
1 2 3 4 5
comments
print report bad tab
guest
You may want to rate the tab now too:
select rating
Wanna post a correction for this tab? Suggest correction