Oops, an error
Loading. Please wait.

But Your Are Vast intro tab

3,859 views 3 this week
2 commentsread comments
1 2 3 4 5
x 4
add to favorites
×
Save as Personal and add changes to this tab that will be seen only by you. Learn more ›
×
You can save this tab as Personal to edit and correct it or add notes. All changes will be seen only by you. Learn more »
launch autoscroll
font size
0
reset
how to read this tab
guitar tuner
edit
Autoscroll
slow
fast
+/-
esc
set tempo
stop
Author
intro tab for ...But You Are Vast by Crime in Stereo


e|-------------------------------------------------------------------|
B|-------------------------------------------------------------------|
G|-------------------------------------------------------------------|
D|-------3-----------3-----------------------------------------------| x4
A|-----4---4-----1-4---4---3-4h6p4-----------------------------------|
E|---2-------------------4-------------------------------------------| 

            
            
Suggest correction
Creating personal tab
Creating personal tab
You can edit any tab online and save it as your Personal.

You can edit, replace or remove any tab part or add personal notes – all changes will be seen only by you.

Personal tabs can be accessed anytime from any device, even offline.
Learn more »
comments
print report bad tab
2 comments total.
0 reply
Sam_Vimes 60 Nov 01, 2008 04:57 PM

Ending of the phrase should be. But it's good.

A|---4h6p4----|

+1 reply
As Rivers Run D 22 Aug 18, 2009 03:40 PM

Ya I agree with Sam but i think u have too many notes. there's an echo effect that makes it seem like theres more then really are. Here's my take on it:
e|------------------------------|
B|------------------------------|
G|------------------------------|
D|-------3-------3--------------|
A|-----4--4--1-4------3-4h6p4---|
E|---2--------------4-----------|

guest
You may want to rate the tab now too:
select rating
Wanna post a correction for this tab? Suggest correction