Oops, an error
Loading. Please wait.

Painted Skies bass

version 1
version 1

Whole song

Interactive

179 views 1 this week
no commentswrite comment
1 2 3 4 5
3 more votes to show rating
add to favorites
×
Save as Personal and add changes to this tab that will be seen only by you. Learn more ›
×
You can save this tab as Personal to edit and correct it or add notes. All changes will be seen only by you. Learn more »
launch autoscroll
font size
0
reset
guitar tuner
edit
Autoscroll
slow
fast
+/-
esc
set tempo
stop
                                Painted Skies                                   
                                Crimson Glory

http://profile.ultimate-guitar.com/AllJudasPriest


Bass: Jeff

Rest first twenty four bars.

  W                                             E  E  E  E  E  Q    E   
F#||---------------------------------------------|-------------------------|
C#||---------------------------------------------|-----------------5----4--|
G#||--5------------------------------------------|--5--5--5--5--5----------|
D#||---------------------------------------------|-------------------------|


  Q    Q    E  E  E  E     Q    E.  S E  E  Q        Q    Q    E  E  E  E   
------------------------|-------------------------|------------------------|
------------------------|-------------------------|------------------------|
------------------------|----------------5--7\----|------------------------|
--0----0----0--5--7--0--|-------0---0-0-----------|--0----0----0--0-----5--|


  Q    Q    E  E  Q       Q    Q    E  E  E  E     Q    Q    E  E  Q      
-----------------------|------------------------|------------------------|
------------------7----|------------------------|------------------------|
---------------7-------|------------------------|---------------5--7\----|
-------5----5----------|--0----0----0--5--7--0--|-------0----0-----------|


                                         |----3----|     
  Q    Q    E  E  E  E     E  S S S S E  Q    Q    Q     
------------------------|-------------------------------|
------------------------|---------5-4----7----5----4----|
--3----3----3--3--------|-----5-7-----5-----------------|
---------------------3--|--L----------------------------|


  Q    Q    E  E  E  E     Q    E.  S E  E  Q        Q    Q    E  E  E  E   
------------------------|-------------------------|------------------------|
------------------------|-------------------------|------------------------|
------------------------|----------------5--7\----|------------------5-----|
--0----0----0--5--7--0--|-------0---0-0-----------|--0----0----0--0-----5--|


  Q    E.  S E  E  Q       Q    Q    E  E  E  E     Q    Q    E  E  Q      
------------------------|------------------------|------------------------|
-------------7-----7----|------------------------|------------------------|
-----------7----7-------|------------------------|---------------5--7\----|
-------5----------------|--0----0----0--5--7--0--|-------0----0-----------|


    W                   Q.     Q.     Q       W                 
---------------------|---------------------|-------------------|
---------------------|---------------------|-------------------|
--2g3----------------|--2------3------2----|-------------------|
---------------------|---------------------|--0----------------|


  H        E   E  E  E     W                   E  E  E  E  E  E  Q             
------------------------|-------------------|-------------------------|-------|
--------------10--9-----|-------------------|-------------------------|-------|
---------------------7--|--7----------------|-------------------------|-------|
--L--------L------------|-------------------|-----0--0-----0--0-------|-------|

Rest the next sixteen bars.

  W                    E  E  E  E  E  Q    E     Q    Q    E  E  E  E     Q    E.  S E  E  Q      
|-------------------|-------------------------|------------------------|-------------------------|
|-------------------|-----------------5----4--|------------------------|-------------------------|
|-5-----------------|--5--5--5--5--5----------|------------------------|----------------5--7\----|
|-------------------|-------------------------|--0----0----0--5--7--0--|-------0---0-0-----------|


  Q    Q    E  E  E  E     Q    Q    E  E  Q       Q    Q    E  E  E  E   
------------------------|-----------------------|------------------------|
------------------------|------------------7----|------------------------|
------------------------|---------------7-------|------------------------|
--0----0----0--0-----5--|-------5----5----------|--0----0----0--5--7--0--|


  Q    Q    E  E  Q        Q    Q    E  E  E  E   
------------------------|------------------------|
------------------------|------------------------|
---------------5--7\----|--3----3----3--3--------|
-------0----0-----------|---------------------3--|


                |----3----|                              
  E  S S S S E  Q    Q    Q       Q    Q    E  E  E  E   
-------------------------------|------------------------|
---------5-4----7----5----4----|------------------------|
-----5-7-----5-----------------|------------------------|
--L----------------------------|--0----0----0--5--7--0--|


  Q    E.  S E  E  Q        Q    Q    E  E  E  E     Q    E.  S E  E  Q     
-------------------------|------------------------|------------------------|
-------------------------|------------------------|-------------7-----7----|
----------------5--7\----|------------------5-----|-----------7----7-------|
-------0---0-0-----------|--0----0----0--0-----5--|-------5----------------|


  Q    Q    E  E  E  E     Q    Q    E  E  Q        H        E  Q    E   
------------------------|------------------------|----------------------|
------------------------|------------------------|----------------------|
------------------------|---------------5--7\----|--3-----------3-------|
--0----0----0--5--7--0--|-------0----0-----------|-------------------3--|


                |----3----|                              
  E  S S S S E  Q    Q    Q       Q    Q    E  E  E  E   
-------------------------------|------------------------|
---------5-4----7----5----4----|------------------------|
-----5-7-----5-----------------|------------------------|
--L----------------------------|--0----0----0--5--7--0--|


  Q    E.  S E  E  Q        Q    Q    E  E  E  E     Q    Q    E  E  Q     
-------------------------|------------------------|-----------------------|
-------------------------|------------------------|------------------7----|
----------------5--7\----|------------------------|---------------7-------|
-------0---0-0-----------|--0----0----0--0-----5--|-------5----5----------|


  Q    Q    E  E  E  E     Q    Q    Q    Q       W                 
------------------------|----------------------|-------------------|
------------------------|----------------------|-------------------|
------------------------|-----------------7----|--3----------------|
--0----0----0--5--7--0--|-------0----0---------|-------------------|


                                                            |-----3----|     
  Q.     Q.     Q       E  E  E  E  H           E  E  E  E  Q    Q     Q     
---------------------|-----------------------|------------------------------|
---------------------|-----------------------|------------------------------|
--2------3------2----|--0--0-----0--0--------|--2--2-----2--2----3----/5----|
---------------------|-----------------------|------------------------------|


  |----3----|    |----3----|                             
  Q    Q    Q    Q    Q    Q       H        E  E  E  E   
--------------------------------|-----------------2-----|
------------2----4----5----7----|--------------4-----0--|
--3----5------------------------|--5--------5-----------|
--------------------------------|-----------------------|


  E  E  E  E  H           E  E  E  S S E.  S E  E     E  E  E  E  H         
-----------------------|---------------------------|-----------------------|
-----------------------|---------------------------|-----------------------|
--------------7--------|-----------9-9-9-----------|--------------7--------|
--0--0-----0-----------|--0--0-------------0----0--|--0--0-----0-----------|


  |----3----|    |----3----|                              
  Q    Q    Q    Q    Q    Q       Q    Q    E  E  E  E   
--------------------------------|------------------------|
--------------------------------|------------------------|
--3----2----3----5----3----5----|------------------------|
--------------------------------|--0----0----0--5--7--0--|


  Q    E.  S E  E  Q        Q    Q    E  E  E  E     Q    Q    E  E  Q     
-------------------------|------------------------|-----------------------|
-------------------------|------------------------|------------------7----|
----------------5--7\----|------------------------|---------------7-------|
-------0---0-0-----------|--0----0----0--0-----5--|-------5----5----------|


                                                          |--3-|               
  Q    Q    E  E  E  E     Q    E.  S E  E  Q        Q    Q    E  E  E  E  E   
------------------------|-------------------------|-------5----5--7--5--4-----|
------------------------|-------------------------|------------------------5--|
------------------------|----------------5--7\----|--3------------------------|
--0----0----0--5--7--0--|-------0---0-0-----------|---------------------------|


                |----3----|                              
  E  S S S S E  Q    Q    Q       Q    Q    E  E  E  E   
-------------------------------|------------------------|
--L------5-4----7----5----4----|------------------------|
-----5-7-----5-----------------|------------------------|
-------------------------------|--0----0----0--5--7--0--|


  Q    E.  S E  E  Q        Q    Q    E  E  E  E     Q    E.  S E  E  Q      
-------------------------|------------------------|-------------------------|
-------------------------|------------------------|-------------7-----7\----|
----------------5--7\----|------------------------|-----------7----7--------|
-------0---0-0-----------|--0----0----0--0-----5--|-------5-----------------|


                                |--3-|                                      
  Q    Q    E  E  E  E     Q    Q    E  E  E  Q        H        E  Q    E   
------------------------|---------------------------|----------------------|
------------------------|---------------------------|----------------------|
------------------------|------------------5--7\----|--3-----------3-------|
--0----0----0--5--7--0--|-------0----0--0-----------|-------------------3--|


                |----3----|                              
  E  S S S S E  Q    Q    Q       Q    Q    E  E  E  E   
-------------------------------|------------------------|
---------5-4----7----5----4----|------------------------|
-----5-7-----5-----------------|------------------------|
--L----------------------------|--0----0----0--5--7--0--|


  Q    E.  S E  E  Q        Q    Q    E  E  E  E     Q    E.  S E  E  Q      
-------------------------|------------------------|-------------------------|
-------------------------|------------------------|-------------7-----7\----|
----------------5--7\----|------------------------|-----------7----7--------|
-------0---0-0-----------|--0----0----0--0-----5--|-------5-----------------|


                                |--3-|                                        
  Q    Q    E  E  E  E     Q    Q    E  E  E  Q       Q    E  E  E  E  E  E   
------------------------|--------------------------|----------5--7--5--4-----|
------------------------|--------------------------|-------5--------------5--|
------------------------|---------------7--5--7----|--3----------------------|
--0----0----0--5--7--0--|-------0----0-------------|-------------------------|


                |----3----|                              
  E  S S S S E  Q    Q    Q       Q    Q    E  E  E  E   
-------------------------------|------------------------|
---------5-4----7----5----4----|------------------------|
-----5-7-----5-----------------|------------------------|
--L----------------------------|--0----0----0--5--7--0--|


                                                          |--3-|              
  Q    E.  S E  E  Q        Q    Q    E  E  E  E     Q    Q    E  E  E  Q     
-------------------------|------------------------|--------------------------|
-------------------------|------------------------|---------------------7----|
----------------5--7\----|------------------------|------------------7-------|
-------0---0-0-----------|--0----0----0--0-----5--|-------5----5--5----------|


  Q    Q    E  E  E  E     Q    Q    E  E  Q        W                 
------------------------|------------------------|-------------------|
------------------------|------------------------|-------------------|
------------------------|---------------5--7\----|--3----------------|
--0----0----0--5--7--0--|-------0----0-----------|-------------------|


  Q.     Q.     Q       H.           Q       W                   w
---------------------|--------------------|-------------------|-------------------|
---------------------|--------------------|-------------------|-------------------|
--2------3------2----|--7-----------------|-------------------|-------------------|
---------------------|---------------0----|--L----------------|--L----------------|

            
            
Suggest correction
Creating personal tab
Creating personal tab
You can edit any tab online and save it as your Personal.

You can edit, replace or remove any tab part or add personal notes – all changes will be seen only by you.

Personal tabs can be accessed anytime from any device, even offline.
Learn more »
Give kudos to tab author, rate the tab!
1 2 3 4 5
comments
print report bad tab
guest
You may want to rate the tab now too:
select rating
Wanna post a correction for this tab? Suggest correction