Oops, an error
Loading. Please wait.

Noches En Vela tab

17 views 1 this week
no commentswrite comment
1 2 3 4 5
3 more votes to show rating
add to favorites
×
Save as Personal and add changes to this tab that will be seen only by you. Learn more ›
×
You can save this tab as Personal to edit and correct it or add notes. All changes will be seen only by you. Learn more »
launch autoscroll
font size
0
reset
how to read this tab
guitar tuner
edit
Autoscroll
slow
fast
+/-
esc
set tempo
stop
esta rola empieza con un bajeo mas o menos asi

4:--0-5-0-3-2-3-5-    2 veces

fill:1
   LA          RE                       
4:-7---7----------------
3:---9---7-6-7-------7--
2:-------------7-7-5----  3 veces termina con mi-re

verso:(A)
  LA       RE
como remediar 
        LA      RE
esta situacion
 LA        RE        
estoy atrapado
           MI
y no hay salvacion


verso:(B)
     LA                 RE
tu amor por mi es casi nada
    LA             RE
me das migajas de amor
         FA#m    MI   RE
yo sigo siempre esperando
             MI       RE
que me ames por fin


(coro)
LA-MI-RE                     LA-MI
     paso las noches en vela
RE                     FA#m-MI
quisiera tenerte aqui
RE                     FA#m-MI
nadie ma hace sentir 
RE             MI
tan bien como tu, como tu


repite fill:1


verso(A)
como explicarle
a tu corazon
que me estoy muriendo
en la soledad


verso(B)


(coro)


(solo)
4:-7-9-11---11---------------------------11------
3:--------7----9-9/11-9-9-11-----------9----9/11-
2:---------------------------9-10-10-9-----------
1:-----------------------------------------------

4:------11-7-9-9/11-9------------------------------
3:-11-9--------------------------------------------
2:--------------------10-12------------------------
1:--------------------------9-10-9-12-12/14-12--12-

4:-----------------------------------------------------
3:-----------------------------------------------------
2:-------------------14---------------10-12-12/14-10-9-
1:-14-16-17-17-16-12----12/14-14-12-9------------------


(coro)


bueno pues esta es toda la rola 
y quiero dedicarsela a todos los
que se pasan las noches en vela.

            
            
Suggest correction
Creating personal tab
Creating personal tab
You can edit any tab online and save it as your Personal.

You can edit, replace or remove any tab part or add personal notes – all changes will be seen only by you.

Personal tabs can be accessed anytime from any device, even offline.
Learn more »
Give kudos to tab author, rate the tab!
1 2 3 4 5
comments
print report bad tab
guest
Wanna post a correction for this tab? Suggest correction