Oops, an error
Loading. Please wait.

Vive La Vida tab

44 views 1 this week
no commentswrite comment
1 2 3 4 5
3 more votes to show rating
add to favorites
×
Save as Personal and add changes to this tab that will be seen only by you. Learn more ›
×
You can save this tab as Personal to edit and correct it or add notes. All changes will be seen only by you. Learn more »
launch autoscroll
font size
0
reset
how to read this tab
guitar tuner
edit
Autoscroll
slow
fast
+/-
esc
set tempo
stop
..quetal yo otra vez, espero lo disfruten es facil.


jajaja...mejor vamos con algo viejo

Riff #1
              Am*              G*
e|--------8-5-5-5-8-5-5-----7-------7----------|
B|----------------------------8-8-8----8-8-----|
G|---------------------------------------------|  x4
D|---------------------------------------------|
A|---------------------------------------------|
E|---------------------------------------------|

Am*                     G*
vive, vive la vida hoy vívela aunque mañana te mueras,
Am*                     G*
vive la vida hoy vívela aunque mañana te mueras
Am*                     G*
vive, vive la vida hoy vívela aunque mañana te mueras,
Am*                     G*
vive vive la vida hoy vívela aunque mañana te mueras, viveee

Riff #2

e|-----------------------------------------------|
B|-----10---8---6--------------------10---8---6--|
G|---9----9---7---------9--7-------9----9---7----|
D|-------------------9-------9-------------------|
A|-----------------------------------------------|
E|-----------------------------------------------|

e|----------------|
B|----------------|
G|---9--7---------|
D|-9-------9--7---|
A|----------------|
E|----------------|


e|---------------------------|
B|---------------------------|
G|---------------------------|   esta es la
D|-------------------0-------| //  parte de los bajos
A|-------0-0-3-3-2-----2-----|//
E|-0-2-3-----------------0---|

dedicada a todos los despechados
Am      Dm       E
amigo sirva una copa,
Am      Dm       E
que este canto nos invita,
Am      Dm       E
aunque a ustedes no le importe señores
Am      Dm       E
voy a contarles mi vida
Am      Dm       E
yo luche por una mujer
Am      Dm       E
por ella la mas querida
Am      Dm       E
me traiciono la perdida
         Am     Dm       E
señores que injusto y mal proceder
Am*              G*
si no me das tu amor,
Am*          G*
vístete y adiós
Am*               G*
otro hallaras pero
Am*              G*
nunca mejor que yo

Riff #1

vive, vive la vida hoy vívela aunque mañana te mueras,
vive vive la vida hoy vívela aunque mañana te mueras
vive, vive la vida hoy vívela aunque mañana te mueras,
vive vive la vida hoy vívela aunque mañana te mueras....viveee

Riff #2

que rico pero yo aun no estoy borracho dame una mas por ella

ella me hizo beber
ella me hizo perdido
al alcohol yo me tire,
a la cárcel fui metido,
solo mi madre lloraba
a dios pedía y rogaba,
escuchen lo que les digo señores
no hay dinero no hay amigos

si no me das tu amor,
vístete y adiós
otro hallaras pero
nunca mejor que yo

SOLO

e|-----------7-8-7----7-----------------|
B|-~~10---10-------10--------10---10----|
G|------9---------------9-------9-------|
D|--------------------------------------|
A|--------------------------------------|
E|--------------------------------------|

e|-7-8-7-10-13-10-12---|
B|---------------------|
G|---------------------|
D|---------------------|
A|---------------------|
E|---------------------|


e|--12-10-------------------10----------
B|--------13-10-13-10-13-13----13-13-13-
G|--------------------------------------
D|--------------------------------------
A|--------------------------------------
E|--------------------------------------

e|-----------------------
B|-12-12-10-12-10----10--
G|----------------13-----
D|-----------------------
A|-----------------------
E|-----------------------

e|----------------------------12-17~~~----|
B|----10-12-13-12-12-13-15-13-------------|
G|--9-------------------------------------|
D|----------------------------------------|
A|----------------------------------------|
E|----------------------------------------|

CORO

  Am*         G*
|--5---|    |--3--|
|--5---|    |--3--|
|--5---|    |--4--|
|--7---|    |--5--|
|--7---|    |--5--|
|--5---|    |--3--|

ojalá que les guste y les sirva

Cualquier duda, comentario, rectificación, invitación etc.
    )s(

            
            
Suggest correction
Creating personal tab
Creating personal tab
You can edit any tab online and save it as your Personal.

You can edit, replace or remove any tab part or add personal notes – all changes will be seen only by you.

Personal tabs can be accessed anytime from any device, even offline.
Learn more »
Give kudos to tab author, rate the tab!
1 2 3 4 5
comments
print report bad tab
guest
Wanna post a correction for this tab? Suggest correction