Oops, an error
Loading. Please wait.

Mi Amado Dios tab

47 views 1 this week
no commentswrite comment
1 2 3 4 5
3 more votes to show rating
add to favorites
×
Save as Personal and add changes to this tab that will be seen only by you. Learn more ›
×
You can save this tab as Personal to edit and correct it or add notes. All changes will be seen only by you. Learn more »
launch autoscroll
font size
0
reset
how to read this tab
guitar tuner
edit
Autoscroll
slow
fast
+/-
esc
set tempo
stop
HEY!!!!!!! ESTO ES LO TENGO HASTA AHORA ES BUENISIMO

INTRO:

GUIT I
  -------------------------P.M-------------------------------
D---------------------------------------------------------------
A-----------------------------------0-0-0-0-0-0-0-0-0-0-0-0-0---
E-0-0-0-0-0-0-0-0-0-0-0-0-0-0-0-0-------------------------------

GUIT II
D-------------------4-4-4-4---4--5*-5-4-5*-5-4-5-5-5-4-4---------
A-5*-5*-5*-5*--5-4-5--------7----------------------------7-7-5-5-
E----------------------------------------------------------------

GUIT III
G-----------------------------------------------------------------
D---------------------4-4-4-4-4/DESLIZAR HACIA---------4-4-4-4-4/-
A---------------------5-5-5-7-5/--- ATRAS--------------5-5-5-7-5/-
E-----------------------------------------------------------------

ESTROFA:
GUITARRA I CON LA MISMA SECUENCIA
GUITARRA II
  E                      A
D-9-9-9-9-9-9-9-9-9-9-9-----------------------
A-7-7-7-7-7-7-7-7-7-7-7--7-7-7-7-7-7-7-7-7-7--
E------------------------5-5-5-5-5-5-5-5-5-5--

PRE CORO
C#m-B-A

CORO:
LA MISMA SECUENCIA DEL INTRO

INTRO:
ESTROFA II
PRECOROII
CORO II

INTERMEDIO:

E-2s4-4-4-4--2-2-4-4- ESTO LO HACEN
B-2S4-4-4-4--2-2-4-4-   4 VECES
G--------------------


E-10/12-12-12--10-10-10--12-12-12--
B-10/12-12-12--10-10-10--12-12-12--   X 4
G----------------------------------

FINAL
LA SECUENCIA DEL INTERMEDIO
Y ESTO LUEGO
E-----------------------------------------------
B-5------8------12------8----------------------- X 2
G-8^9----12^13--15^16---12^13-------------------

GUIT I
E------------------
B-5----------------
G-8^9--------------

GUIT II
E-4----------------
B-5----------------
G-4----------------

GUIT III
D-9----------------
A-7----------------
E-0----------------

LOS * SIGNIFICAN GOLPE SECO STTACATO

ESTO ES TODO ESPERO LO ENTIENDAN Y LES SEA UTIL
BENDICIONES

            
            
Suggest correction
Creating personal tab
Creating personal tab
You can edit any tab online and save it as your Personal.

You can edit, replace or remove any tab part or add personal notes – all changes will be seen only by you.

Personal tabs can be accessed anytime from any device, even offline.
Learn more »
Give kudos to tab author, rate the tab!
1 2 3 4 5
comments
print report bad tab
guest
Wanna post a correction for this tab? Suggest correction