Oops, an error
Loading. Please wait.

Tu Mirada tab

version 2
version 2

Whole song

38 views 1 this week
no commentswrite comment
1 2 3 4 5
3 more votes to show rating
add to favorites
×
Save as Personal and add changes to this tab that will be seen only by you. Learn more ›
×
You can save this tab as Personal to edit and correct it or add notes. All changes will be seen only by you. Learn more »
launch autoscroll
font size
0
reset
how to read this tab
guitar tuner
edit
Autoscroll
slow
fast
+/-
esc
set tempo
stop
Bueno amigos aki sta el solo de esta canción, vi la otra versión q sta
aqui y no suena nada parecida a como se escucha en la cancion.
La TAB #1 es de como enrealidad suena el solo, y la TAB #2 es de unos
arreglos q yo mismo le hice, y pues se eschucha mucho mejor.

TAB #1
Esta es como enserio se escucha en la canción:

   D     C#m      F#m    E         G     D
e|----------------------------------------------------------------|
B|---------------------------------13s15v-14-12-14v---------------|
G|-9s11v-9-7-9v---12s14v-13-11-13v--------------------------------|
D|----------------------------------------------------------------|
   C#
e|----------------------------------------------------------------|
B|----------------------------------------------------------------|
G|-13s14-13h14p13h14p13h1413h14p13v-------------------------------|
D|----------------------------------------------------------------| X2

TAB #2
Y esta es la que tiene los arreglos que yo le hice:

   D              C#m    F#m                 E
e|----------------------------------------------------------------|
B|----------------------------------------------------------------|
G|-------7h9-9s11v-9-7-9v--------9h11-11s14v-13-11-13v------------|
D|---7h9-------------------9h11-----------------------------------|
A|-9---------------------11---------------------------------------|
E|----------------------------------------------------------------|
   G                    D
e|----------------------------------------------------------------|
B|---------11h13-13s15v-14-12-14v---------------------------------|
G|----11h3--------------------------------------------------------|
D|-13-------------------------------------------------------------|
A|----------------------------------------------------------------|
     C#
e|----------------------------------------------------------------|
B|----------------------------------------------------------------|
G|-13s14-13h14p13h14p13h1413h14p(13)v-----------------------------|
D|----------------------------------------------------------------|

NOTA:

Si se pueden dar cuenta lo unico que hice fue hacer una pequeña
escala que keda bien con el solo, pero va algo rapida, les sugiero
que escuchen bien la cancion y traten de hacerlo rapido, sin pereder
el tiempo que lleva la cancion.

La ultima nota... si se dieron cuenta esta encerrada en parentesis ( )
eso significa que es un Armonico.
pero no importa si no les sale el armonico, le pueden dar sin el armonico
y no altera mucho, igual suena bien jeje xD.

Dios les bendiga.

            
            
Suggest correction
Creating personal tab
Creating personal tab
You can edit any tab online and save it as your Personal.

You can edit, replace or remove any tab part or add personal notes – all changes will be seen only by you.

Personal tabs can be accessed anytime from any device, even offline.
Learn more »
Give kudos to tab author, rate the tab!
1 2 3 4 5
comments
print report bad tab
guest
Wanna post a correction for this tab? Suggest correction