Oops, an error
Loading. Please wait.

Almost Cut My Hair intro tab

version 1
version 1

Intro

Whole song

20,883 views 21 this week
2 commentsread comments
1 2 3 4 5
x 5
add to favorites
×
Save as Personal and add changes to this tab that will be seen only by you. Learn more ›
×
You can save this tab as Personal to edit and correct it or add notes. All changes will be seen only by you. Learn more »
launch autoscroll
font size
0
reset
how to read this tab
guitar tuner
edit
Autoscroll
slow
fast
+/-
esc
set tempo
stop
Author
Difficulty
intermediate
Almost Cut My Hair - Crosby, Stills, Nash and Young
From the album "Deja vu" (1970)      Tabbed by Carlo Basso
-----------------------------------------------------
Not 100% correct, but close enough. I've only tabbed the intro for now. 
I might eventually tab the whole thing with solos, if i can be bothered.

Standard Tuning

p  = pull off
h  = hammer on
b  = bend (see bottom of tab lines for amount)
br = bend and return
/  = slide up
\  = slide down
(#)= may or may not be played

INTRO
-----
Am         G         D                   Am             G
 hold--|                         hold--------------|
  1 2 3 4   1 2 3 4   1 2 3 4    12 34    1  2  3  4    1  2 3 4
e-5---5-8-|---------|----------|--------|-------------|----------|
B---8-----|-5-------|---5-8-10-|-13(15b)|-15b---13----|-10-8-5---|
G---------|---7-----|-5--------|----14--|-14-14-14-14-|--------7-|
D---------|-----5-7-|----------|--------|-------------|----------|
A---------|---------|----------|--------|-------------|----------|
E---------|---------|----------|--------|-------------|----------|
                                    1/4   1/4
D          *           At * the second guitar plays
  1 2 3 4   1 2 3 4    this little lick:
e---------|(5)--8-5-|  e-------------|
B---------|-5-8-----|  B-------------|
G-----5-7-|---------|  G-7br-7brp5---|
D-5-7-----|---------|  D-----------7-|
A---------|---------|  A-------------|
E---------|---------|  E-------------|
           *              5/4 5/4

            
            
Suggest correction
Creating personal tab
Creating personal tab
You can edit any tab online and save it as your Personal.

You can edit, replace or remove any tab part or add personal notes – all changes will be seen only by you.

Personal tabs can be accessed anytime from any device, even offline.
Learn more »
comments
print report bad tab
2 comments total.
+1 reply
MaartenNijmeije 72 Jan 21, 2008 11:21 AM

the intro (first part goes more like this).
It's just a tip for perfection. But still pretty awesome tab KEEP ROCKING:


e

+1 reply
MaartenNijmeije 72 Jan 21, 2008 11:32 AM

SRRY for the stupid comment whit no clue:


e--5---5-8|---------|---------|-----------| 
B----8----|-5-------|-----5-8-|-10-13-15b-|
D---------|---7-----|-5-7-----|-----------| And So on....
G---------|-----5-7-|---------|-----------|
A---------|---------|---------|-----------|
E---------|---------|---------|-----------|

guest
You may want to rate the tab now too:
select rating
Wanna post a correction for this tab? Suggest correction