Oops, an error
Loading. Please wait.

Already Gone intro tab

version 2
version 2

Intro

Whole song

Interactive

3,176 views 1 this week
2 commentsread comments
1 2 3 4 5
1 last vote to show rating
add to favorites
×
Save as Personal and add changes to this tab that will be seen only by you. Learn more ›
×
You can save this tab as Personal to edit and correct it or add notes. All changes will be seen only by you. Learn more »
launch autoscroll
font size
0
reset
how to read this tab
guitar tuner
edit
Autoscroll
slow
fast
+/-
esc
set tempo
stop
E|-------------------------------------------------------------------------|
B|-------------------------------------------------------------------------|
G|-------------------------------------------------------------------------|
D|--13---13-13-13-x---11---11-11-11-x---10---10-10-10-x---10br-10-10-------|
A|--11---11-11-11-x---11---11-11-11-x---11---11-11-11-x---11---11-11-10-0--|
D|--11---11-11-11-x---11---11-11-11-x---11---11-11-11-x---11---11-11-------|
                                * (see note)
E|-------------------------------------------------------------------------|
B|-------------------------------------------------------------------------|
G|-------------------------------------------------------------------------|
D|--6---6-6-6-x---6---6-6-6-x---5---5-5-5-x--8---8-8-8-x-------------------|
A|--3---3-3-3-x---3---3-3-3-x---1---1-1-1-x--6---6-6-6-x-------------------|
D|--3---3-3-3-x---3---3-3-3-x---1---1-1-1-x--6---6-6-6-x-------------------|

E|-------------------------------------------------------------------------|
B|-------------------------------------------------------------------------|
G|-------------------------------------------------------------------------|
D|--13---13-13-13-x---11---11-11-11-x---10---10-10-10-x---10br-10-10-------|
A|--11---11-11-11-x---11---11-11-11-x---11---11-11-11-x---11---11-11-10-0--|
D|--11---11-11-11-x---11---11-11-11-x---11---11-11-11-x---11---11-11-------|

E|-------------------------------------------------------------------------|
B|-------------------------------------------------------------------------|
G|-------------------------------------------------------------------------|
D|--5---5-5-5-x---6---6-6-6-x---5---5-5-5-x---8--8-x-x---------------------|
A|--3---3-3-3-x---3---3-3-3-x---3---3-3-3-x---6--6-x-x---------------------|
D|--3---3-3-3-x---3---3-3-3-x---3---3-3-3-x---6--6-x-x---------------------|


E|-------------------------------------------------------------------------|
B|-------------------------------------------------------------------------|
G|-------------------------------------------------------------------------|
D|--13---13-13-13-x---11---11-11-11-x---10---10-10-10-x---10br-10-10-------|
A|--11---11-11-11-x---11---11-11-11-x---11---11-11-11-x---11---11-11-10-0--|
D|--11---11-11-11-x---11---11-11-11-x---11---11-11-11-x---11---11-11-------|
                                              * (see note)
E|-------------------------------------------------------------------------|
B|-------------------------------------------------------------------------|
G|-------------------------------------------------------------------------|
D|--5---5-5-5-x---5---5-5-5-x---8---8-8-8-x---5---5-5-5-x------------------|
A|--3---3-3-3-x---3---3-3-3-x---6---6-6-6-x---1---1-1-1-x------------------|
D|--3---3-3-3-x---3---3-3-3-x---6---6-6-6-x---1---1-1-1-x------------------|

* at this part if your hands aren't large enough to reach the 5th fret with your pinkey use:
|-|
|-|
|0|
|1|
|1|
|1|

            
            
Suggest correction
Creating personal tab
Creating personal tab
You can edit any tab online and save it as your Personal.

You can edit, replace or remove any tab part or add personal notes – all changes will be seen only by you.

Personal tabs can be accessed anytime from any device, even offline.
Learn more »
Give kudos to tab author, rate the tab!
1 2 3 4 5
comments
print report bad tab
2 comments total.
0 reply
daylightdies370 349 Aug 09, 2008 10:37 PM

horrible...

0 reply
e_prado 177 Jan 15, 2010 02:57 PM

that's not truth!!! it's the best version that i have seen, it sounds exactly like the song, the only thing i cuold change is the chord |336---| for |3365--| sounds "prettier"... nice job, extend!!!!

guest
Wanna post a correction for this tab? Suggest correction