Oops, an error
Loading. Please wait.

Death Trend Setta tab

version 1
version 1

Whole song

1,552 views 1 this week
2 commentsread comments
1 2 3 4 5
2 more votes to show rating
add to favorites
×
Save as Personal and add changes to this tab that will be seen only by you. Learn more ›
×
You can save this tab as Personal to edit and correct it or add notes. All changes will be seen only by you. Learn more »
launch autoscroll
font size
0
reset
how to read this tab
guitar tuner
edit
Autoscroll
slow
fast
+/-
esc
set tempo
stop
Author
I was searching on the internet and couldn't find a good full tab for this song so I 
to post one its in drop B (B F# B E G# C#)

Intro:
|----------------|------------------|------------------|-------------------|
|----------------|------------------|------------------|-------------------|
|----------------|------------------|------------------|-------------------|
|-0--10-0-10-0---|-6--0-6-0-6-0-6---|-2--0-2-0-2-0-2---|-3--0-3-0-3--1-----|
|-0--10-0-10-0---|-6--0-6-0-6-0-6---|-2--0-2-0-2-0-2---|-3--0-3-0-3--1-----|
|-0--10-0-10-0---|-6--0-6-0-6-0-6---|-2--0-2-0-2-0-2---|-3--0-3-0-3--1-----|


Verse:
       Repeat then:
|-----------|   |---------|
|-----------|   |---------|
|------7----|   |---------|
|-3-3--6----|   |--3-3-6--|
|-3-3--5----|   |--3-3-5--|
|-4-3--6----|   |--4-3-6--|

Pre Chorus:

|-------------------------------|           |-----------------------x-x-x-x|
|-------------------------------|           |-----------------------x-x-x-x|
|-------------------------------|  x2 then: |-----------------------x-x-x-x|
|-------------------------------|           |-----------------------x-x-x-x|
|----------3------------4p3p1---|           |---------3-------------x-x-x-x|
|--5p3-6p3----3-5p3-6p3-------3-|           |-5p3-6p3----3-5p3-6p3--x-x-x-x|


Chorus:
|--------------|-------------------|
|-------3------|-------------------|
|-------3------|-------------------|
|-3-0-0-1------|-0-0----0-0---0-0--|  Repeat
|-3-0-0-1------|-0-0----0-0---0-0--|
|-3-0-0-1------|-0-0----0-0---0-0--|


Bridge:
|-----------------------|-----------------------|--------------------------|
|-----------------------|-----------------------|--------------------------|
|-14---14-14---14-14----|-15---15-15---15-15----|-15---15-15---17-17-------|
|--x----x--x----x--x----|--x----x--x----x--x----|--x----x--x----x--x-------|
|-12---12-12---12-12----|-13---13-13---13-13----|-13---13-13---15-15-------|
|----0-------0-------0--|----0-------0-------0--|----0-------0-------0-----|

|-----------------------|
|-----------------------|
|-14---14-14---14-14----|
|--x----x--x----x--x----|
|-12---12-12---12-12----|
|----0-------0-------0--|

Outro:
|--------------------|-----------------------|
|--------------------|-----------------------|
|-10--10-8----8-8----|-10---10-10---10-10----|
|--x---x-x-1--x-x-1--|--x----x--x----x--x----|
|--8---8-6-1--6-6-1--|--8----8--8----8--8----|
|----0-----1------1--|----0-------0-------0--|

            
            
Suggest correction
Creating personal tab
Creating personal tab
You can edit any tab online and save it as your Personal.

You can edit, replace or remove any tab part or add personal notes – all changes will be seen only by you.

Personal tabs can be accessed anytime from any device, even offline.
Learn more »
Give kudos to tab author, rate the tab!
1 2 3 4 5
comments
print report bad tab
2 comments total.
+1 reply
blackout57 72 Jan 19, 2009 02:52 PM

good job, i didn´t saw the tab, but at last & i can playing this song... wath ever, good job

0 reply
blackout57 72 Jan 19, 2009 02:55 PM

I found a big mistake in the intro (XDXDXD)i think... the other tab (the intro of this song) was good.

good job.XD

guest
You may want to rate the tab now too:
select rating
Wanna post a correction for this tab? Suggest correction