Oops, an error
Loading. Please wait.

All The Same bass

60 views 1 this week
no commentswrite comment
1 2 3 4 5
3 more votes to show rating
add to favorites
×
Save as Personal and add changes to this tab that will be seen only by you. Learn more ›
×
You can save this tab as Personal to edit and correct it or add notes. All changes will be seen only by you. Learn more »
launch autoscroll
font size
0
reset
guitar tuner
edit
Autoscroll
slow
fast
+/-
esc
set tempo
stop
                             All The Same - Crossfire
-------------------------------------------------------------------------------

Tuning: Standard

(Drum count 1,2,3,4)

Intro Pt. 1
G|-----------------------------------------------------------------------------------------|
D|-----------------------------------------------------------------------------------------|
A|-(Drum Count 1,2,3,4)--5 (Hold) 8 (Hold) 3 (Hold) 5 (Hold) 5 (Hold) 8 (Hold) 3 (Hold) 5--|
E|-----------------------------------------------------------------------------------------|

Intro Pt. 2
G|-------14------14------14-----14------17------17-------17-------17-----------|
D|---12------12------12-----12------15------15------15-------15----------------|
A|-----------------------------------------------------------------------------|
E|-----------------------------------------------------------------------------|

G|-------12------12------12------12------14------14------14------14------------|
D|---10------10------10------10------12------12------12------12----------------|
A|-----------------------------------------------------------------------------|
E|-----------------------------------------------------------------------------|

G|-------14------14------14-----14------17------17-------17-------17-----------|
D|---12------12------12-----12------15------15------15-------15----------------|
A|-----------------------------------------------------------------------------|
E|-----------------------------------------------------------------------------|

G|-------12------12------12------12------14------14------14------14------------|
D|---10------10------10------10------12------12------12------12----------------|
A|-----------------------------------------------------------------------------|
E|-----------------------------------------------------------------------------|

(Drums join in)
G|-------14------14------14-----14------17------17-------17-------17-----------|
D|---12------12------12-----12------15------15------15-------15----------------|
A|-----------------------------------------------------------------------------|
E|-----------------------------------------------------------------------------|

G|-------12------12------12------12------14------14------14------14------------|
D|---10------10------10------10------12------12------12------12----------------|
A|-----------------------------------------------------------------------------|
E|-----------------------------------------------------------------------------|

G|-------14------14------14-----14------17------17-------17-------17-----------|
D|---12------12------12-----12------15------15------15-------15----------------|
A|-----------------------------------------------------------------------------|
E|-----------------------------------------------------------------------------|

G|-------12------12------12------12------14------14------14------14------------|
D|---10------10------10------10------12------12------12------12----------------|
A|-----------------------------------------------------------------------------|
E|-----------------------------------------------------------------------------|

Verse
G|--------------------------------14--------------------------------17---------|
D|-14p-12-14p-12-14p-12-14p-12-------17p-15-17p-15-17p-15-17p-15---------------|
A|-----------------------------------------------------------------------------|
E|-----------------------------------------------------------------------------|

G|--------------------------------12--------------------------------14---------|
D|-12p-10-12p-10-12p-10-12p-10-------14p-12-14p-12-14p-12-14p-12---------------|
A|-----------------------------------------------------------------------------|
E|-----------------------------------------------------------------------------|

G|--------------------------------14--------------------------------17---------|
D|-14p-12-14p-12-14p-12-14p-12-------17p-15-17p-15-17p-15-17p-15---------------|
A|-----------------------------------------------------------------------------|
E|-----------------------------------------------------------------------------|

G|--------------------------------12--------------------------------14---------|
D|-12p-10-12p-10-12p-10-12p-10-------14p-12-14p-12-14p-12-14p-12---------------|
A|-----------------------------------------------------------------------------|
E|-----------------------------------------------------------------------------|

Pre-Chorus
G|-------14------14------14-----14------17------17-------17-------17-----------|
D|---12------12------12-----12------15------15------15-------15----------------|
A|-----------------------------------------------------------------------------|
E|-----------------------------------------------------------------------------|

G|-------12------12------12------12------14------14------14------14------------|
D|---10------10------10------10------12------12------12------12----------------|
A|-----------------------------------------------------------------------------|
E|-----------------------------------------------------------------------------|

G|-------14------14------14-----14------17------17-------17-------17-----------|
D|---12------12------12-----12------15------15------15-------15----------------|
A|-----------------------------------------------------------------------------|
E|-----------------------------------------------------------------------------|

G|-------12------12------12------12------14------14------14------14------------|
D|---10------10------10------10------12------12------12------12----------------|
A|-----------------------------------------------------------------------------|
E|-----------------------------------------------------------------------------|

Chorus
G|-----------------------------------------------------------------------------|
D|----------------/7-5-3--------/3-2-0-0---0-0------------------/7-5-3---------|
A|--5-5-5-5-8-8-8--------3-3-3-----------3-----3-5-5-5-5-8-8-8--------3-3-3----|
E|-----------------------------------------------------------------------------|

G|---------------------------------------------------------------------------|
D|-/3-2-0-0-0-0--------------------------------------------------------------|
A|---------------------------------------------------------------------------|
E|---------------------------------------------------------------------------|

Verse
G|--------------------------------14--------------------------------17---------|
D|-14p-12-14p-12-14p-12-14p-12-------17p-15-17p-15-17p-15-17p-15---------------|
A|-----------------------------------------------------------------------------|
E|-----------------------------------------------------------------------------|

G|--------------------------------12--------------------------------14---------|
D|-12p-10-12p-10-12p-10-12p-10-------14p-12-14p-12-14p-12-14p-12---------------|
A|-----------------------------------------------------------------------------|
E|-----------------------------------------------------------------------------|

G|--------------------------------14--------------------------------17---------|
D|-14p-12-14p-12-14p-12-14p-12-------17p-15-17p-15-17p-15-17p-15---------------|
A|-----------------------------------------------------------------------------|
E|-----------------------------------------------------------------------------|

G|--------------------------------12--------------------------------14---------|
D|-12p-10-12p-10-12p-10-12p-10-------14p-12-14p-12-14p-12-14p-12---------------|
A|-----------------------------------------------------------------------------|
E|-----------------------------------------------------------------------------|

Pre-Chorus
G|-------14------14------14-----14------17------17-------17-------17-----------|
D|---12------12------12-----12------15------15------15-------15----------------|
A|-----------------------------------------------------------------------------|
E|-----------------------------------------------------------------------------|

G|-------12------12------12------12------14------14------14------14------------|
D|---10------10------10------10------12------12------12------12----------------|
A|-----------------------------------------------------------------------------|
E|-----------------------------------------------------------------------------|

G|-------14------14------14-----14------17------17-------17-------17-----------|
D|---12------12------12-----12------15------15------15-------15----------------|
A|-----------------------------------------------------------------------------|
E|-----------------------------------------------------------------------------|

G|-------12------12------12------12------14------14------14------14------------|
D|---10------10------10------10------12------12------12------12----------------|
A|-----------------------------------------------------------------------------|
E|-----------------------------------------------------------------------------|

Chorus
G|-----------------------------------------------------------------------------|
D|----------------/7-5-3--------/3-2-0-0---0-0------------------/7-5-3---------|
A|--5-5-5-5-8-8-8--------3-3-3-----------3-----3-5-5-5-5-8-8-8--------3-3-3----|
E|-----------------------------------------------------------------------------|

G|---------------------------------------------------------------------------|
D|-/3-2-0-0-0-0--------------------------------------------------------------|
A|---------------------------------------------------------------------------|
E|---------------------------------------------------------------------------|

Bridge
G|-----------------------------------------------------------------------------|
D|-----------------------------------------------------------------------------|
A|-----------------------------------------------------------------------------|
E|-1-1-1-111-1-1-1-111-8-8-8-888-10-10-10-1010-12-12-12-1212-------------------|

G|-----------------------------------------------------------------------------|
D|-----------------------------------------------------------------------------|
A|-----------0-1----------1-3--------------------------------------------------|
E|-1-1-1-111----1-1-1-111----8-8-8-888-10-10-10-1010-12-12-12-1212-------------|


G|-----------------------------------------------------------------------------|
D|-----------------------------------------------------------------------------|
A|-----------------------------------------------------------------------------|
E|-1-1-1-111-1-1-1-111-8-8-8-888-10-10-10-1010-12-12-12-1212-------------------|

G|------------------------------------------------------------------------------|
D|------------------------------------------------------------------------------|
A|-----------0-1----------1-3----------------------------5----------------------|
E|-1-1-1-111----1-1-1-111----8-8-8-888-5-5-5-5-5-5-5-5--------------------------|
                                                                                   (Pause)

Guitar Solo
G|-----------------------------------------------------------------------------|
D|----------------/7-5-3--------/3-2-0-0---0-0------------------/7-5-3---------|
A|--5-5-5-5-8-8-8--------3-3-3-----------3-----3-5-5-5-5-8-8-8--------3-3-3----|
E|-----------------------------------------------------------------------------|

G|---------------------------------------------------------------------------|
D|-/3-2-0-0-0-0--------------------------------------------------------------|
A|---------------------------------------------------------------------------|
E|---------------------------------------------------------------------------|

G|-----------------------------------------------------------------------------|
D|----------------/7-5-3--------/3-2-0-0---0-0------------------/7-5-3---------|
A|--5-5-5-5-8-8-8--------3-3-3-----------3-----3-5-5-5-5-8-8-8--------3-3-3----|
E|-----------------------------------------------------------------------------|

G|---------------------------------------------------------------------------|
D|-/3-2-0-0-0-0--------------------------------------------------------------|
A|---------------------------------------------------------------------------|
E|---------------------------------------------------------------------------|

 (A cappella singing for one chorus then bass joins in)

G|--------------------------------14--------------------------------17---------|
D|-14p-12-14p-12-14p-12-14p-12-------17p-15-17p-15-17p-15-17p-15---------------|
A|-----------------------------------------------------------------------------|
E|-----------------------------------------------------------------------------|

G|--------------------------------12--------------------------------14---------|
D|-12p-10-12p-10-12p-10-12p-10-------14p-12-14p-12-14p-12-14p-12---------------|
A|-----------------------------------------------------------------------------|
E|-----------------------------------------------------------------------------|

G|--------------------------------14--------------------------------17---------|
D|-14p-12-14p-12-14p-12-14p-12-------17p-15-17p-15-17p-15-17p-15---------------|
A|-----------------------------------------------------------------------------|
E|-----------------------------------------------------------------------------|

G|--------------------------------12--------------------------------14---------|
D|-12p-10-12p-10-12p-10-12p-10-------14p-12-14p-12-14p-12-14p-12---------------|
A|-----------------------------------------------------------------------------|
E|-----------------------------------------------------------------------------|

(Drums come back in)

Last chorus
G|-----------------------------------------------------------------------------|
D|----------------/7-5-3--------/3-2-0-0---0-0------------------/7-5-3---------|
A|--5-5-5-5-8-8-8--------3-3-3-----------3-----3-5-5-5-5-8-8-8--------3-3-3----|
E|-----------------------------------------------------------------------------|

G|---------------------------------------------------------------------------|
D|-/3-2-0-0-0-0--------------------------------------------------------------|
A|---------------------------------------------------------------------------|
E|---------------------------------------------------------------------------|

Outro
G|-------14------14------14-----14------17------17-------17-------17-----------|
D|---12------12------12-----12------15------15------15-------15----------------|
A|-----------------------------------------------------------------------------|
E|-----------------------------------------------------------------------------|

G|-------12------12------12------12------14------14------14------14------------|
D|---10------10------10------10------12------12------12------12----------------|
A|-----------------------------------------------------------------------------|
E|-----------------------------------------------------------------------------|

G|-------14------14------14-----14------17------17-------17-------17-----------|
D|---12------12------12-----12------15------15------15-------15----------------|
A|-----------------------------------------------------------------------------|
E|-----------------------------------------------------------------------------|

G|-------12------12------12------12------14------14------14------14------------|
D|---10------10------10------10------12------12------12------12----------------|
A|-----------------------------------------------------------------------------|
E|-----------------------------------------------------------------------------|

(Same as intro)
G|---------------------------------------------------------------------------|
D|---------------------------------------------------------------------------|
A|--5 (Hold) 8 (Hold) 3 (Hold) 5 (Hold) 5 (Hold) 8 (Hold) 3 (Hold) 5 (Hold)--|
E|---------------------------------------------------------------------------|



| /  slide up
| \  slide down
| h  hammer-on
| p  pull-off
| ~  vibrato
| +  harmonic
| x  Mute note
===============================================================================

            
            
Suggest correction
Creating personal tab
Creating personal tab
You can edit any tab online and save it as your Personal.

You can edit, replace or remove any tab part or add personal notes – all changes will be seen only by you.

Personal tabs can be accessed anytime from any device, even offline.
Learn more »
Give kudos to tab author, rate the tab!
1 2 3 4 5
comments
print report bad tab
guest
Wanna post a correction for this tab? Suggest correction