Oops, an error
Loading. Please wait.

Planets Collide tab

version 1
version 1

Whole song

Interactive

by Crowbar
24,644 views 15 this week
1 commentread comment
1 2 3 4 5
x 7
add to favorites
×
Save as Personal and add changes to this tab that will be seen only by you. Learn more ›
×
You can save this tab as Personal to edit and correct it or add notes. All changes will be seen only by you. Learn more »
launch autoscroll
font size
0
reset
how to read this tab
guitar tuner
backing track
0:00
0:00
edit
Autoscroll
slow
fast
+/-
esc
set tempo
stop
[Intro/Chorus]
C#|----------------------------|
G#|----------------------------|
E |-----4----------------------|
B |---4----4-2----2------------|
F#|-2------2-2--0------4---5-\-|
B |------------------3---3-----| (8x)

[Verse]
(Gtr 1)
C#|---------------------------------------------------|
G#|---------------------------------------------------|
E |---------------------------------------------------|
B |--9--9--9--9---9--9--9--9-/12----------------------|
F#|------------------------------------10-10-10-10-10-|
B |---------------------------------------------------|

(Gtr 2)
C#|---------------------------------------------------|
G#|-12-12-12-12--12-12-12-12-/15-15-15-14-14-14-14-14-|
E |---------------------------------------------------|
B |---------------------------------------------------|
F#|---------------------------------------------------|
B |---------------------------------------------------|

(Gtr 1)
C#|--------------------------------------------------|
G#|--------------------------------------------------|
E |--------------------------14p12-------------------|
B |--9--9--9--9---9--9--9--9-------12----12----12----|
F#|-----------------------------------10----10----10-|
B |--------------------------------------------------|

(Gtr 2)
C#|--------------------------17-15-------------------|
G#|-12-12-12-12--12-12-12-12-------14~---------------|
E |--------------------------------------------------|
B |--------------------------------------------------|
F#|--------------------------------------------------|
B |--------------------------------------------------| (3x)

(Gtr 1)
C#|---------------------------------------------------|
G#|---------------------------------------------------|
E |---------------------------------------------------|
B |--9--9--9--9---9--9--9--9-/12----------------------|
F#|------------------------------------10-10-10-10-10-|
B |---------------------------------------------------|

(Gtr 2)
C#|---------------------------------------------------|
G#|-12-12-12-12--12-12-12-12-/15-15-15-14-14-14-14-14-|
E |---------------------------------------------------|
B |---------------------------------------------------|
F#|---------------------------------------------------|
B |---------------------------------------------------|

(Gtr 1)
C#|---------------------------------|
G#|---------------------------------|
E |---------------------------------|
B |--9--9--9--9--9--9---7-7-5-5-----|
F#|---------------------7-7-5-5-----|
B |-------------------\-5-5-3-3--/\-|

(Gtr 2)
C#|---------------------------------|
G#|-12-12-12-12-12-12---------------|
E |---------------------------------|
B |---------------------7-7-5-5-----|
F#|---------------------7-7-5-5-----|
B |-------------------\-5-5-3-3--/\-|

[Pre-Chorus]
C#|------------------------------------------------------------|
G#|------------------------------------------------------------|
E |------------------------------------------------------------|
B |-4-----------------------------4----------------------------|
F#|-4--4-4-4-4-4-4-4--------5-4-5-4--4-4-4-4-4----------5-4----|
B |-2--2-2-2-2-2-2-2-3-2-0--------2--2-2-2-2-2-2-3-2-0------5\-|

[Chorus]
C#|----------------------------|
G#|----------------------------|
E |-----4----------------------|
B |---4----4-2----2------------|
F#|-2------2-2--0------4---5-\-|
B |------------------3---3-----| (4x)

[Verse]
(Gtr 1)
C#|---------------------------------------------------|
G#|---------------------------------------------------|
E |---------------------------------------------------|
B |--9--9--9--9---9--9--9--9-/12----------------------|
F#|------------------------------------10-10-10-10-10-|
B |---------------------------------------------------|

(Gtr 2)
C#|---------------------------------------------------|
G#|-12-12-12-12--12-12-12-12-/15-15-15-14-14-14-14-14-|
E |---------------------------------------------------|
B |---------------------------------------------------|
F#|---------------------------------------------------|
B |---------------------------------------------------|

(Gtr 1)
C#|--------------------------------------------------|
G#|--------------------------------------------------|
E |--------------------------14p12-------------------|
B |--9--9--9--9---9--9--9--9-------12----12----12----|
F#|-----------------------------------10----10----10-|
B |--------------------------------------------------|

(Gtr 2)
C#|--------------------------17-15-------------------|
G#|-12-12-12-12--12-12-12-12-------14~---------------|
E |--------------------------------------------------|
B |--------------------------------------------------|
F#|--------------------------------------------------|
B |--------------------------------------------------| (3x)

(Gtr 1)
C#|---------------------------------------------------|
G#|---------------------------------------------------|
E |---------------------------------------------------|
B |--9--9--9--9---9--9--9--9-/12----------------------|
F#|------------------------------------10-10-10-10-10-|
B |---------------------------------------------------|

(Gtr 2)
C#|---------------------------------------------------|
G#|-12-12-12-12--12-12-12-12-/15-15-15-14-14-14-14-14-|
E |---------------------------------------------------|
B |---------------------------------------------------|
F#|---------------------------------------------------|
B |---------------------------------------------------|

(Gtr 1)
C#|---------------------------------|
G#|---------------------------------|
E |---------------------------------|
B |--9--9--9--9--9--9---7-7-5-5-----|
F#|---------------------7-7-5-5-----|
B |-------------------\-5-5-3-3--/\-|

(Gtr 2)
C#|---------------------------------|
G#|-12-12-12-12-12-12---------------|
E |---------------------------------|
B |---------------------7-7-5-5-----|
F#|---------------------7-7-5-5-----|
B |-------------------\-5-5-3-3--/\-|

[Pre-Chorus]
C#|------------------------------------------------------------|
G#|------------------------------------------------------------|
E |------------------------------------------------------------|
B |-4-----------------------------4----------------------------|
F#|-4--4-4-4-4-4-4-4--------5-4-5-4--4-4-4-4-4----------5-4----|
B |-2--2-2-2-2-2-2-2-3-2-0--------2--2-2-2-2-2-2-3-2-0------5\-|

[Chorus]
C#|----------------------------|
G#|----------------------------|
E |-----4----------------------|
B |---4----4-2----2------------|
F#|-2------2-2--0------4---5-\-|
B |------------------3---3-----| (4x)

[Fill]
C#|----------------------------|
G#|----------------------------|
E |----------------------------|
B |----------------------------|
F#|----------------------------|
B |-/7~------------------------|

[Interlude]
(Note - Gtr 3 is strumming the following octave throughout)
C#|----|
G#|-12-|
E |--x-|
B |--9-|
F#|----|
B |----|

(Gtr 1)
C#|----------------------------------------------------|
G#|-/12-12-12-12--12-12-12-12--10\8--------8-----8-----|
E |---x--x--x--x---x--x--x--x--------7--7-----7-----7--|
B |--/9--9--9--9---9--9--9--9--------------------------|
F#|----------------------------------------------------|
B |----------------------------------------------------|

(Gtr 2)
C#|----------------------------------------12-12-12-12-|
G#|--12-12-12-12--12-12-12-12--15-15-15-15-------------|
E |----------------------------------------------------|
B |----------------------------------------------------|
F#|----------------------------------------------------|
B |----------------------------------------------------|

(Gtr 1)
C#|----------------------------------------------------|
G#|-/12-12-12-12--12-12-12-12--10\8--------8-----8-----|
E |---x--x--x--x---x--x--x--x--------7--7-----7-----7--|
B |--/9--9--9--9---9--9--9--9--------------------------|
F#|----------------------------------------------------|
B |----------------------------------------------------|

(Gtr 2)
C#|--14-14-14-14--14-14-14-14--14-15-14-12-14-12-------|
G#|----------------------------------------------15-14-|
E |----------------------------------------------------|
B |----------------------------------------------------|
F#|----------------------------------------------------|
B |----------------------------------------------------| (2x)

(Gtr 1)
C#|----------------------------------------------------|
G#|-/12-12-12-12--12-12-12-12--10-10-10--8--8--8--8--8-|
E |---x--x--x--x---x--x--x--x------------7--7--7--7--7-|
B |---9--9--9--9---9--9--9--9--------------------------|
F#|----------------------------------------------------|
B |----------------------------------------------------|

  (Gtr 2)
C#|----------------------------------------------------|
G#|----------------------------------------------------|
E |-11/12---11\9---9/11--------------------------------|
B |-------------------------------------12-12-12-12-12-|
F#|----------------------------------------------------|
B |----------------------------------------------------| 3x

(Gtr 1)
C#|---------------------------------|
G#|-12-12-12-12-12-12---------------|
E |--x--x--x--x--x--x---------------|
B |--9--9--9--9--9--9---7-7-5-5-----|
F#|---------------------7-7-5-5-----|
B |-------------------\-5-5-3-3--/\-|

(Gtr 2)
C#|---------------------------------|
G#|---------------------------------|
E |-11/12--11\9--9/11---------------|
B |---------------------7-7-5-5-----|
F#|---------------------7-7-5-5-----|
B |-------------------\-5-5-3-3--/\-|

[Instrumental]
C#|----------------------------|
G#|----------------------------|
E |-----4----------------------|
B |---4----4-2----2------------|
F#|-2------2-2--0------4---5-\-|
B |------------------3---3-----| (8x)

[Outro]
C#|----------------------------|
G#|----------------------------|
E |----------------------------|
B |-4-4-4--2-2--2-2------------|
F#|-2-2-2--2-2--0-0----4---5-\-|
B |------------------3---3-----| (7x)

C#|----------------------------|
G#|----------------------------|
E |----------------------------|
B |-4-4-4--2-2---7-7-5-5-----\-|
F#|-2-2-2--2-2---7-7-5-5-----\-|
B |------------\-5-5-3-3-----\-|


************************************

| \  Slide down
| /  Slide up
| p  Pull-off
| ~  Vibrato
| x  Dead note

************************************

            
            
Suggest correction
Creating personal tab
Creating personal tab
You can edit any tab online and save it as your Personal.

You can edit, replace or remove any tab part or add personal notes – all changes will be seen only by you.

Personal tabs can be accessed anytime from any device, even offline.
Learn more »
comments
print report bad tab
1 comment total.
0 reply
vovo 10 Apr 05, 2011 01:25 PM

It's not Dropped B - this is B standart, when the strings are tuned B-E-A-D-F♯-B, known then as Baritone Tuning.

Dropped B (intro):

C#|----------------------------|-------------------|
G#|----------------------------|-------------------|
E |--------2-------------------|-------------------|
B |-----2--------2--2-----5----|--0----------------|
F#|--0-----------2--0----------|--------2-----3----|
B |----------------------------|-----3-----3-------|

guest
You may want to rate the tab now too:
select rating
Wanna post a correction for this tab? Suggest correction