Oops, an error
Loading. Please wait.

A Million Pictures tab

90 views 1 this week
4 commentsread comments
1 2 3 4 5
1 last vote to show rating
add to favorites
×
Save as Personal and add changes to this tab that will be seen only by you. Learn more ›
×
You can save this tab as Personal to edit and correct it or add notes. All changes will be seen only by you. Learn more »
launch autoscroll
font size
0
reset
how to read this tab
guitar tuner
edit
Autoscroll
slow
fast
+/-
esc
set tempo
stop
Author
Hey people... This is my first tab ever. I hope to see more Crowned King stuff
on here. I'm not sure if this tab is 100% correct but it sounds good.  I am WAY
TOO LAZY to figure out the strumming pattern exactly, so you can do that yourself
because this is just to give you an idea. I'm pretty sure the whole song has 
light distortion except for a few parts. If you have any questions just email me.
-----------------------------------------------------------------------------
                             A MILLION PICTURES - Crowned King
-----------------------------------------------------------------------------
Tabbed by: Ian
Email: sullivan_fan@hotmail.com

Tuning: Standard
 
INTRO
e|---------------------------------    At the end  -----------
B|---------------------------------    of the 2nd  -----------
G|---------------------------------  repeat, finish-----------
D|---7777--4444--2222--7777--5555--x2      on      ---77777---
A|---5555--2222--2222--7777--5555--                ---55555---
E|---------------0000--5555--3333--                -----------

VERSES [on bass and lead guitar] 
G|--------------  -----To make it sound ---------------------------  -----|
D|--------------  ----- more like the   ---------------------------  -----|
A|-5------------x2-----  song try doing --0h5----------------------x2-----|
E|----5--6--7--3  -2-0-    this -->     --------0h5--0h6--0h7--0h3-  -2-0-|

PRECHORUS
e|--------------                 -------------|
B|--------------    Just play    -------------|
G|--------7-----    around with  -------------|
D|-----7-----7-- x7 that sort of ---7777777---|
A|--5-----------   pattern using ---7777777---|
E|--------------    those notes  ---5555555---|

CHORUS
e|---------------------------|
B|---------------------------|
G|---------------------------|
D|--7777--5555--2222--77--55-| x2
A|--5555--5555--2222--77--55-|
E|--------3333--0000--55--33-|

Then repeat Intro x2 
but on the second time play this
e|---------------------------
B|---------------------------
G|---------------------------
D|---7777--4444--2222--7--5--
A|---5555--2222--2222--7--5--
E|---------------0000--5--3--

Then repeat verse (same as before)
Then repeat prechorus (same as before)
Then repeat chorus (same as before)

BRIDGE
e|-------------------  when you  ---------????-|
B|-------------------  repeat    ---------????-|
G|--------------7----  you don't ---------????-| I can't figure
D|--7~~~------7---7--x7 play the ---7777--????-| out what the note 
A|--5~~~----5--------   first    ---7777--????-| with the ? is.
E|-------------------   chord    ---5555--????-| sorry.

Then repeat chorus x2
Then end on
e|--------|
B|--------|
G|--------|
D|--7~~~--|
A|--5~~~--|
E|--------|

Then it becomes quieter and I think he repeats the intro but with no distortion.  

| h  hammer-on  |
| ~  Let Ring   |

(I would like to apologise for the constant use of the word "then")
=============================================================================

            
            
Suggest correction
Creating personal tab
Creating personal tab
You can edit any tab online and save it as your Personal.

You can edit, replace or remove any tab part or add personal notes – all changes will be seen only by you.

Personal tabs can be accessed anytime from any device, even offline.
Learn more »
Give kudos to tab author, rate the tab!
1 2 3 4 5
comments
print report bad tab
4 comments total. Showing first comments.
0 reply
gcjunkie 30 Aug 11, 2004 08:00 PM

Good tab, except in the verses the notes should be played more than once. Otherwise great!

0 reply
ham_man_226 151 Aug 11, 2004 08:00 PM

G|-------------------------------------------------------|
D|-------------------------------------------------------|
A|-0h55555555--------------------------------------------|
E|------------0h55555555-0h66-0h77777777-0h33333333------|

there's the correction...I realized that too right after I had sent in the tab. thanks. rate it!

0 reply
ham_man_226 151 Aug 17, 2004 08:00 PM

I just saw these guys live and they rock! You've got to see them!

guest
You may want to rate the tab now too:
select rating
Wanna post a correction for this tab? Suggest correction