Oops, an error
Loading. Please wait.

El Aguajal tab

version 1
version 1

Whole song

149 views 1 this week
no commentswrite comment
1 2 3 4 5
3 more votes to show rating
add to favorites
×
Save as Personal and add changes to this tab that will be seen only by you. Learn more ›
×
You can save this tab as Personal to edit and correct it or add notes. All changes will be seen only by you. Learn more »
launch autoscroll
font size
0
reset
how to read this tab
guitar tuner
edit
Autoscroll
slow
fast
+/-
esc
set tempo
stop
El Aguajal

La única forma de tocar bien esta rola es escuchando varias 
veces la canción de los Cruks. Aquí les envío una guía para 
que puedan ayudarme a sacar lo demás de la canción.
Para que no tengan muchas confusiones les advierto que no 
esta exactamente como la tocan pero si es un gran acercamiento 
a la original.

         Riff 1                 Riff 2 
D |--------7h8h-7h8   D |--------8-7-5----             
A |---57----------   A |---57--------7--             
E |-7--------------   E |-7---------------    

         
         Riff 3                 Riff 4
b |--------8--8----   b |--------11/10p8--8-8  
g |--------7--7----   g |--------7--------7-7
D |----------------   D |--------------------
A |---57----------   A |---57-------------- 
E |-7--------------   E |-7------------------
        
             E Riff
e |---7---7-7-7--10-10-9-9-9   
b |---8---8-8-8--8--8---8-8-8   
g |---7---7-7-7--7-7---7-7-7   
             Riff 5              Riff 6
D |--------------5h7p5    D |--------7h8-7h8- 
A |---57----5h7------    A |---57----------   
E |-7-----5h7---------    E |-7--------------   
             Riff 7              Riff 8
D |--------------5h7p5    D |--------8-7-5-- 
A |---57----5h7------    A |---57--------7-  
E |-7-----5h7---------    E |-7--------------   
           Riff 9
D |----5h7p5---5h7p5---5h7p5----5h7p5
A |--5h7----5h7-----5h7-------5h7    
E |5h7----5h7-----5h7-------5h7


Si se marcho sin un adiós que se vaya que se vaya (Riff 1)(Riff 2)
Si se marcho sin un adiós que se vaya que se vaya (Riff 3)(Riff 4)
C          G            D           E - (E Riff )
Amores ahí cariños ahí todititos traicioneros
C          G            D           E 
Amores ahí cariños ahí todititos embusteros  Riff 5,6,7,8
C          G            D           E 
El aguajal de este lugar solo sabe mis tormentos (Riff 1)(Riff 2)
C          G            D           E 
El papayal de este lugar solo sabe mis sufrimientos(Riff 3)(Riff 4)    
C          G            D           E - (E Riff)
Llamo aquí llamo allá pero nadie me responde      
C          G            D             Riff 9   
Miro aquí miro allá pero nadie se aparece-eee ooo 

Disonantes de las notas: C, G, D, e, la verdad es que es la 
parte mas importante y no logro sacarla totalmente bien, así 
que si alguien ya logro sacarla por favor me envié la tablatura 
a mi correo electrónico; esteban_alej@ Las demás 
partes de la canción, si están completas, con unos minimos 
errores pero que con un buen ritmo se solucionan.
      Esta parte va con disonantes
*************************************************
Si se marcho sin un adiós que se vaya que se vaya
Si se marcho sin un adiós que se vaya que se vaya
C          G            D           E - (E Riff )
Amores ahí cariños ahí todititos traicioneros
C          G            D           E            2 veces Riff9            
Amores ahí cariños ahí todititos embusteeeroooos ee ooo ee 
                   A huiii
D |----2-5-----------47-------9-
A |--3--------2-5-5------7-10---
E |---------3--------------------
     Cuidado, Cuidado, Cuidado se me chume compadre
D |----2-5---------------47-------9-
A |--3------------2-5-5------7-10---
E |-------------3--------------------
  Si se marcho sin un adiós si me robo la inspiración si me dejo
          tirado ahí si me partió el corazón 
D |----2-5------------47--------------2-5------------47----------
A |--3-------------5------7h9-7h9---3-------------5------7h9-7h9-
E |--------2h3-2h3-------------------------2h3-2h3-----------------
Si le dijo a sus amigos que no quiere estar conmigo no entiende 
lo que hago no canta lo que digo si a su padre o su madre no le 
gusta mi apariencia que se vaya que se vaya.
D |----2-5------------47--------------2-5------------47----------
A |--3-------------5------7h9-7h9---3-------------5--------------
E |--------2h3-2h3-------------------------2h3-2h3-----------------

Riff 5,6,7,8 ¡Fuera! Riff 5,6,7,8

Notas:
  E-A-D-G-B-E
C:X-X-X-5-5-3
G:X-X-X-4-3-3
D:X-X-X-7-7-5
e:X-X-X-9-8-7

Estas notas son para que toque el guitarrista principal, pero 
la guitarra acompañante las toca con todas las cuerdas Un gran 
agradecimiento a un compañero que ayudo en gran parte de la 
canción para poder sacarla martín(bajista).

            
            
Suggest correction
Creating personal tab
Creating personal tab
You can edit any tab online and save it as your Personal.

You can edit, replace or remove any tab part or add personal notes – all changes will be seen only by you.

Personal tabs can be accessed anytime from any device, even offline.
Learn more »
Give kudos to tab author, rate the tab!
1 2 3 4 5
comments
print report bad tab
guest
Wanna post a correction for this tab? Suggest correction