Oops, an error
Loading. Please wait.

Beautiful chords

version 2
version 2

Whole song

  • Crush - Beautiful from the KDrama [Goblin].
by Crush
3,130 views 147 this week
no commentswrite comment
1 2 3 4 5
2 more votes to show rating
add to favorites
×
Save as Personal and add changes to this tab that will be seen only by you. Learn more ›
×
You can save this tab as Personal to edit and correct it or add notes. All changes will be seen only by you. Learn more »
launch autoscroll
font size
0
reset
transpose
0
reset
simplify chords
display chords
guitar tuner
edit
Autoscroll
slow
fast
+/-
esc
set tempo
stop
Strumming
There is no strumming pattern for this song yet. and get +5 IQ
Crush - Beautiful
GOBLIN OST
I made this based on this youtube video https://www.youtube.com/watch?v=m5Bp27nX6Qk

[Intro] 
   A                    C#m7             F#m7                       E
e|----------------------------0---------------------------------------------|
B|-------2-----2------------0-----0------------0------0---------------------|
G|-----2-----2------------1-----1------------2------2---------------1-------|
D|---2-------------------------------------2------------------------2-------|
A|-0--------------------4---------------------------------------------------|
E|---------------------------------------2--------------------------0-------|

[Verse 1] 
   A                    C#m7             F#m7
e|----------------------------0----------------------------------------------|
B|-------2-----2------------0-----0------------0------0------------0-----0---|
G|-----2-----2------------1-----1------------2------2------------2-----2-----|
D|---2-------------------------------------2-------------------2-------------|
A|-0--------------------4----------------------------------------------------|
E|---------------------------------------2-------------------2---------------|
   beautiful life   nan neoye gyeote isseulke  ......                 it's beautiful

    Dsus2              A                   Esus4                     E
e|--------0------------------------------------------------------------------|
B|------3------3-------------2------2---------------0------------------------|
G|----2------2-------------2-----2---------------2---------2---------1-------|
D|--0--------------------2--------------------2---------2------------2-------|
A|---------------------0-----------------------------------------------------|
E|-----------------------------------------0-------------------------0-------|
     life            neoye dwie seo isseulge

   A                    C#m7             F#m7                 Dsus2
e|----------------------------0-------------------------------------0--------|
B|-------2-----2------------0-----0------------0------0-----------3-------3--|
G|-----2-----2------------1-----1------------2------2-----------2------2-----|
D|---2-------------------------------------2------------------0--------------|
A|-0--------------------4----------------------------------------------------|
E|---------------------------------------2-----------------------------------|
  beautiful life ....                 haneul  arae    neowa      itdamyeon

    Bm7                 A                   Esus4                   E
e|---------------------------------------------------------------------------|
B|--------3-------------------2-------------------0-----0--------------------|
G|------2-------------------2-------------------2-----2-------------1--------|
D|----0-------------------2-------------------2---------------------2--------|
A|--2-------------------0----------------------------------------------------|
E|------------------------------------------0-----------------------0--------|
    sumswineun  geot    maneurodo                 joha

[Chorus]
  A                                 E/G#
It’s a beautiful life ... beautiful day
         F#m7              Dsus2
neoye gieogeseo naega saltende
  A                      C#7
Beautiful life beautiful day
 F#m7    E           B7/D#
nae gyeoteseo meomulleojwo
Bm7               A/C#
Beautiful my love
E7sus4/D
Beautiful your heart

~~~starts strumming~~~~
A                  E/G#   F#m7   E
It’s a beautiful li.......fe
                 A   E/G#   F#m7       Dsus2
It’s a beautiful li........fe

[Verse 2]
   A                    C#m7             F#m7
e|----------------------------0----------------------------------------------|
B|-------2-----2------------0-----0------------0------0------------0-----0---|
G|-----2-----2------------1-----1------------2------2------------2-----2-----|
D|---2-------------------------------------2-------------------2-------------|
A|-0--------------------4----------------------------------------------------|
E|---------------------------------------2-------------------2---------------|
its beautiful life  eonjena neol jikyeojulge                   it's beautiful

    Dsus2              A                   Esus4                     E
e|--------0------------------------------------------------------------------|
B|------3------3-------------2------2---------------0------------------------|
G|----2------2-------------2-----2---------------2---------2---------1-------|
D|--0--------------------2--------------------2---------2------------2-------|
A|---------------------0-----------------------------------------------------|
E|-----------------------------------------0-------------------------0-------|
     life            naege gidaelsuga itge

     A                 C#m7             F#m7                Dm         /C#
e|---------------------------0------------------------------------1----------|
B|-------2-----2-----------0------0------------0------0---------3------------|
G|-----2-----2-----------1------1------------2------2---------2--------------|
D|---2-------------------------------------2----------------0----------------|
A|-0-------------------4------------------------------------------------4----|
E|--------------------------------------2------------------------------------|
  Beautiful love                       neoye nunmul neoye misodo........

    Bm7                 A                   Esus4                   E
e|---------------------------------------------------------------------------|
B|--------3-------------------2-------------------0-----0--------------------|
G|------2-------------------2-------------------2-----2-------------1--------|
D|----0-------------------2-------------------2---------------------2--------|
A|--2-------------------0----------------------------------------------------|
E|------------------------------------------0-----------------------0--------|
   gyeoteseo hamkke    hal      su    it     dorok....

[Back to Chorus]
~~~starts strumming~~~
A                                     E/G#
It’s a beautiful life .... Beautiful day
        F#m7                     Dsus2
michidorok neol saranghaesseotdeon nal
            A             C#7
Beautiful life beautiful day
         F#m7    E    B7/D#
neoreul ilhgo sipji anha
             Bm7    A/C#
Beautiful my love
           E7sus4/D
Beautiful your heart.....

                F#m7
It’s a beautiful life
     E/G#       Asus4  A/C#  Dsus2
sesange neowa talmeun chueo..gi
            A/C#         C#7         F#m7
tto deonggeureoni naege namgyeojyeoisseo
         Bm7    A/C#
neowaye gieok 
         E7sus4/D
neowaye chueok

~~~strums E7sus4/D
        A                            E/G#
It’s a sorrowful life..... Sorrowful day
             F#m7            Dsus2
seulpeumeul igiji mothaneun naege
           A             C#7
Sorrowful life sorrowful day
         F#m7      E   B7/D#
nae gyeoteseo tteonajima

    Bm7                   A/C#             E7sus4/D                  
e|-----------------------------------------------0---------------------------|
B|--------3---------------2--------------------0------0----------------------|
G|------2-----------------2------------------2------2------------------------|
D|----0-------------------2----------------0------------------------0--------|
A|--2---------------------4--------------------------------------------------|
E|---------------------------------------------------------------------------|
   chueoksoge nae......ga    salji anh    dorok............

It’s a beautiful life

            
            
Suggest correction
Creating personal tab
Creating personal tab
You can edit any tab online and save it as your Personal.

You can edit, replace or remove any tab part or add personal notes – all changes will be seen only by you.

Personal tabs can be accessed anytime from any device, even offline.
Learn more »
Give kudos to tab author, rate the tab!
1 2 3 4 5
comments
print report bad tab
guest
You may want to rate the tab now too:
select rating
Wanna post a correction for this tab? Suggest correction