Oops, an error
Loading. Please wait.

Svidja Mi Se Ova Stvar tab

2,314 views 1 this week
1 commentread comment
1 2 3 4 5
x 3
add to favorites
×
Save as Personal and add changes to this tab that will be seen only by you. Learn more ›
×
You can save this tab as Personal to edit and correct it or add notes. All changes will be seen only by you. Learn more »
launch autoscroll
font size
0
reset
how to read this tab
guitar tuner
edit
Autoscroll
slow
fast
+/-
esc
set tempo
stop
Author
Transkripcija: andreyx
band :crvena jabuka
song :svidja mi se ova stvar


                 C
Svidja mi se ova stvar
F   G
ova stvar
                  C
staru ceznju budi mi
F    G
budi mi
                 C
Svidja mi se ova stvar
F   G
ova stvar
                   C
noc je vrela vrela ti
F     G
vrela ti
                  C
hajde mala daj mi daj
F      G
daj mi daj
                C
tako njezna ostani
F      G
osta - ni

Svidja mi se ova stvar
staru ceznju budi mi
Ja ne spavam nocima
ti si moje slatko zlo
Pozuda u ocima
daj odvrni radio

Jer svidja mi se ova stvar
budi stare ljubavi
Pritisle su godine
dal ces sa mnom ostati

G
aa aaa aaaaa aaaaaa aaaaaaaaaaa

Bas je dobar ritam taj
mogli bi zaplesati
I ja sam ko barut suh
lako me zapaliti

Svidja mi se ova stvar
staru ceznju probudi
daj odvrni radio
da komsiluk poludi

Svidja mi se ova stvar
Svidja ti se ova stvar...


Uvod
-----------------------------|
-----------------------------|
-----------------------2--0--|
--------------2-----4--------|
-----0--2--3-----3-----------|
--3--------------------------|

            
            
Suggest correction
Creating personal tab
Creating personal tab
You can edit any tab online and save it as your Personal.

You can edit, replace or remove any tab part or add personal notes – all changes will be seen only by you.

Personal tabs can be accessed anytime from any device, even offline.
Learn more »
Give kudos to tab author, rate the tab!
1 2 3 4 5
comments
print report bad tab
1 comment total.
+1 reply
Takumi93 61 Sep 13, 2013 10:24 AM

uvod je
--------------------------| |----|
--------------------------| |----|
----0-----2--0------------| |----|
------2-3-----------------| x4 |----|
-3--------------------0-2-| |-3~-|
--------------------3-----| |----|

a posle refrena
---------------------------|
---------------------------|
----0-----2--0-------------|
------2-3---------3--3-2-0-| x4
-3-------------------------|
---------------------------|

guest
You may want to rate the tab now too:
select rating
Wanna post a correction for this tab? Suggest correction