Oops, an error
Loading. Please wait.

Revive tab

by Crying
121 views 1 this week
no commentswrite comment
1 2 3 4 5
2 more votes to show rating
add to favorites
×
Save as Personal and add changes to this tab that will be seen only by you. Learn more ›
×
You can save this tab as Personal to edit and correct it or add notes. All changes will be seen only by you. Learn more »
launch autoscroll
font size
0
reset
how to read this tab
guitar tuner
edit
Autoscroll
slow
fast
+/-
esc
set tempo
stop
Author
Difficulty
CRYING
"Revive"
From the album "Beyond the Fleeting Gales" (2016)

Standard Tuning
Tempo = 140 bpm


[Intro]
e|----------||----------------------------|--------------------|
B|----------||------10-----10-9-----9-----|-7-----7-----7-9----|
G|----------||-------9------9-9-----9-----|-8-----8-----8-9----|
D|----------||-------9------9-9-----9-----|-9-----9-----9-9----|
A|----------||----------------------------|--------------------|
E|--------0-||--(0)----0-0------0-0---0-0-|---0-0---0-0------0-|


e|---------------------------|--------------------||
B|-----10-----10-9-----9-----|-7-----7-----9------||
G|------9------9-9-----9-----|-8-----8-----9------||
D|------9------9-9-----9-----|-9-----9-----9------|| x2
A|---------------------------|--------------------||
E|-(0)----0-0------0-0---0-0-|---0-0---0-0-----0--||


[Verse 1]
e|---------------|-----------|------------|-------------|
B|---7-9--9-7----|-----5-----|-10---------|-------------|
G|-9-9-9--9-9-9--|-8---6-----|-11-------9-|-(9)---8-----|
D|-9-9-9--9-9-9--|-9---6-----|-11-------9-|-(9)---9-----|
A|---------------|-6---4-----|--9-------7-|-(7)---9-----|
E|---------------|-----------|------------|-------7-----|


e|-----------------|-----------------|-----------------|------------------|
B|-----------------|-----------------|-----------------|------------------|
G|-----------------|---------9-------|-----------------|------------------|
D|-----------------|---------9-9-----|-----------------|------------------|
A|-7-7-7-7-7-7-7-9-|-9-9-9-9-7-9-9-9-|-7-7-7-7-7-7-7-2-|-(2)-2--4-4/7-7-7-|
E|-5-5-5-4-4-4-4-7-|-7-7-7-7---7-7-7-|-5-5-5-4-4-4-4-0-|-(0)-0--2-2/5-5-5-|


e|-----------------|-----------------|---------------------|-----------------|
B|-----------------|-----------------|---------------------|-----------------|
G|-----------------|---------9-------|---------------------|-----------------|
D|-----------------|---------9-9-----|---------------------|-----------------|
A|-7-7-7-7-7-7-7-9-|-9-9-9-9-7-9-9-9-|-11-11-11-11-7-7-7-9-|-9-9-9-9-9-9-9-9-|
E|-5-5-5-4-4-4-4-7-|-7-7-7-7---7-7-7-|--9--9--9--9-5-5-5-7-|-7-7-7-7-7-7-7-7-|


[Pre-Chorus]
e|----------------------------------|---------------------------------|
B|----------------------------------|---------------------------------|
G|-11-------------------------------|---------------------------------|
D|-11-----------7---------------9---|---------------------------------|
A|--9-9-9-9-9-9-7---------------9---|---------------------------------|
E|--------------5-5-5-5-5-5-5-5-7-7-|-7-7-7-7-7-7-7-7-7-7-7-7-7-7-7-7-|


e|----------------------------------|---------------------------------|
B|----------------------------------|---------------------------------|
G|-11-------------------------------|---------------------------------|
D|-11-----------7---------------9---|---------------------------------|
A|--9-9-9-9-9-9-7---------------9---|---------------------------------|
E|--------------5-5-5-5-5-5-5-5-7-7-|-7-7-7-7-7-7-7-7-7-7-7-7-7-7-7-7-|


e|---------------------------------|---------------------------------|
B|---------------------------------|---------------------------------|
G|-9-------------------------------|---------------------------------|
D|-9-----------9---------------7---|---------------------------------|
A|-7-7-7-7-7-7-9---------------7---|---------------------------------|
E|-------------7-7-7-7-7-7-7-7-5-5-|-5-5-5-5-5-5-5-5-5-5-5-5-5-5-5-5-|


e|----------------------------------|---------------------------------|
B|----------------------------------|---------------------------------|
G|-11---------------------------9---|---------------------------------|
D|-11-----------7---------------9---|-------------9-------------------|
A|--9-9-9-9-9-9-7---------------7-7-|-7-7-7-7-7-7-9-------------------|
E|--------------5-5-5-5-5-5-5-5-----|-------------7-7-7-7-7-7-7-7-7-7-|


e||------0-------|-----4--------|------0-------|--------7---------||
B||-0------4-----|--------7-----|-0------4-----|-----9------------||
G||-2--------4/6-|-(6)----------|-2--------4/6-|-(6)-------8b9r=8-||
D||-2------------|--------------|-2------------|------------------|| x2
A||-0------------|--------------|-0------------|------------------||
E||--------------|--------------|--------------|------------------||


[Chorus]
e|----------------|------------------|--------------|------------------|
B|----------------|------------------|--------------|------------------|
G|--9--9--6-6---8-|-8--------------9-|--9---6-6---8-|-8--------------9-|
D|-11-11--7-7---9-|-9-------------11-|-11---7-7---9-|-9-------------11-|
A|-11-11--7-7---9-|-9-9-9-9-9-9-9-11-|-11---7-7---9-|-9-9-9-9-9-9-9-11-|
E|--9--9--5-5---7-|-7-7-7-7-7-7-7--9-|--9---5-5---7-|-7-7-7-7-7-7-7--9-|


e|--------------|-------------|-----------------|-----------------|
B|--------------|-------------|-----------------|-----------------|
G|--9---6-6---9-|-9----8-8--6-|-6-------------8-|---------------9-|
D|-11---7-7---9-|-9----9-9--7-|-7-------------9-|---------------9-|
A|-11---7-7---7-|-7----9-9--7-|-7-7-7-7-7-7-7-9-|-9-9-9-9-9-9-9-7-|
E|--9---5-5-----|------7-7--5-|-5-5-5-5-5-5-5-7-|-7-7-7-7-7-7-7---|


e|---------------|-----------------|---------------|-----------------|
B|---------------|-----------------|---------------|-----------------|
G|-9-9--8-8-8--6-|-6-6-----------9-|-9-9--8-8-8--6-|-6-6-----------9-|
D|-9-9--9-9-9--7-|-7-7-7-7-7-7-7-9-|-9-9--9-9-9--7-|-7-7-7-7-7-7-7-9-|
A|-7-7--9-9-9--7-|-7-7-7-7-7-7-7-7-|-7-7--9-9-9--7-|-7-7-7-7-7-7-7-7-|
E|------7-7-7--5-|-5-5-5-5-5-5-5---|------7-7-7--5-|-5-5-5-5-5-5-5---|


e|---------------|-----------------|---------------|-----------------|
B|---------------|-----------------|---------------|-----------------|
G|-9-9--8-8-8--6-|-6-6-----------9-|-9-9--8-8-8--6-|-6-6-------------|
D|-9-9--9-9-9--7-|-7-7-7-7-7-7-7-9-|-9-9--9-9-9--7-|-7-7-7-7-7-7-7---|
A|-7-7--9-9-9--7-|-7-7-7-7-7-7-7-7-|-7-7--9-9-9--7-|-7-7-7-7-7-7-7---|
E|------7-7-7--5-|-5-5-5-5-5-5-5---|------7-7-7--5-|-5-5-5-5-5-5-5-0-|


[Intro Riff]
e||----------------------------|--------------------|
B||------10-----10-9-----9-----|-7-----7-----7-9----|
G||-------9------9-9-----9-----|-8-----8-----8-9----|
D||-------9------9-9-----9-----|-9-----9-----9-9----|
A||----------------------------|--------------------|
E||--(0)----0-0------0-0---0-0-|---0-0---0-0------0-|


e|---------------------------|--------------------||
B|-----10-----10-9-----9-----|-7-----7-----9------||
G|------9------9-9-----9-----|-8-----8-----9------||
D|------9------9-9-----9-----|-9-----9-----9------|| x2
A|---------------------------|--------------------||
E|-(0)----0-0------0-0---0-0-|---0-0---0-0-----0--||


[Verse 2]
e|---------------|-----------|
B|---7-9--9-7----|-----5-----|
G|-9-9-9--9-9-9--|-8---6-----|
D|-9-9-9--9-9-9--|-9---6-----|
A|---------------|-6---4-----|
E|---------------|-----------|


[Pre-Chorus]
e|----------------------------------|---------------------------------|
B|----------------------------------|---------------------------------|
G|-11-------------------------------|---------------------------------|
D|-11-----------7---------------9---|---------------------------------|
A|--9-9-9-9-9-9-7---------------9---|---------------------------------|
E|--------------5-5-5-5-5-5-5-5-7-7-|-7-7-7-7-7-7-7-7-7-7-7-7-7-7-7-7-|


e|----------------------------------|---------------------------------|
B|----------------------------------|---------------------------------|
G|-11-------------------------------|---------------------------------|
D|-11-----------7---------------9---|---------------------------------|
A|--9-9-9-9-9-9-7---------------9---|---------------------------------|
E|--------------5-5-5-5-5-5-5-5-7-7-|-7-7-7-7-7-7-7-7-7-7-7-7-7-7-7-7-|


e|---------------------------------|---------------------------------|
B|---------------------------------|---------------------------------|
G|-9-------------------------------|---------------------------------|
D|-9-----------9---------------7---|---------------------------------|
A|-7-7-7-7-7-7-9---------------7---|---------------------------------|
E|-------------7-7-7-7-7-7-7-7-5-5-|-5-5-5-5-5-5-5-5-5-5-5-5-5-5-5-5-|


e|----------------------------------|---------------------------------|
B|----------------------------------|---------------------------------|
G|-11---------------------------9---|---------------------------------|
D|-11-----------7---------------9---|-------------9-------------------|
A|--9-9-9-9-9-9-7---------------7-7-|-7-7-7-7-7-7-9-------------------|
E|--------------5-5-5-5-5-5-5-5-----|-------------7-7-7-7-7-7-7-7-7-7-|


e|-----------|-----------------|
B|-0---------|-----------------|
G|-2-------8-|-(8)-8--13--11---|
D|-2-------9-|-(9)-9--11---9---|
A|-0---------|-----------------|
E|-----------|-----------------|


[Chorus]
e|----------------|------------------|--------------|------------------|
B|----------------|------------------|--------------|------------------|
G|--9--9--6-6---8-|-8--------------9-|--9---6-6---8-|-8--------------9-|
D|-11-11--7-7---9-|-9-------------11-|-11---7-7---9-|-9-------------11-|
A|-11-11--7-7---9-|-9-9-9-9-9-9-9-11-|-11---7-7---9-|-9-9-9-9-9-9-9-11-|
E|--9--9--5-5---7-|-7-7-7-7-7-7-7--9-|--9---5-5---7-|-7-7-7-7-7-7-7--9-|


e|--------------|-------------|-----------------|-----------------|
B|--------------|-------------|-----------------|-----------------|
G|--9---6-6---9-|-9----8-8--6-|-6-------------8-|---------------9-|
D|-11---7-7---9-|-9----9-9--7-|-7-------------9-|---------------9-|
A|-11---7-7---7-|-7----9-9--7-|-7-7-7-7-7-7-7-9-|-9-9-9-9-9-9-9-7-|
E|--9---5-5-----|------7-7--5-|-5-5-5-5-5-5-5-7-|-7-7-7-7-7-7-7---|


e|---------------|-----------------|---------------|-----------------|
B|---------------|-----------------|---------------|-----------------|
G|-9-9--8-8-8--6-|-6-6-----------9-|-9-9--8-8-8--6-|-6-6-----------9-|
D|-9-9--9-9-9--7-|-7-7-7-7-7-7-7-9-|-9-9--9-9-9--7-|-7-7-7-7-7-7-7-9-|
A|-7-7--9-9-9--7-|-7-7-7-7-7-7-7-7-|-7-7--9-9-9--7-|-7-7-7-7-7-7-7-7-|
E|------7-7-7--5-|-5-5-5-5-5-5-5---|------7-7-7--5-|-5-5-5-5-5-5-5---|


e|---------------|-----------------|---------------|-----------------|
B|---------------|-----------------|---------------|-----------------|
G|-9-9--8-8-8--6-|-6-6-----------9-|-9-9--8-8-8--6-|-6-6-------------|
D|-9-9--9-9-9--7-|-7-7-7-7-7-7-7-9-|-9-9--9-9-9--7-|-7-7-7-7-7-7-7---|
A|-7-7--9-9-9--7-|-7-7-7-7-7-7-7-7-|-7-7--9-9-9--7-|-7-7-7-7-7-7-7---|
E|------7-7-7--5-|-5-5-5-5-5-5-5---|------7-7-7--5-|-5-5-5-5-5-5-5-0-|


[Outro]
e|-----------------------|-----------------------|
B|-9-----9-7-----7-----5-|-----5-5-----5-5-5-----|
G|-9-----9-8-----8-----6-|-----6-6-----6-6-6-----|
D|-9-----9-9-----9-----7-|-----7-7-----7-7-7-----|
A|-----------------------|-----------------------|
E|---0-0-----0-0---0-0---|-0-0-----0-0-------0-0-|


e|-------------------------|-----------------------|
B|-10-----10-9-----9-----7-|-----7-7-----7-7-7-----|
G|-11-----11-9-----9-----8-|-----8-8-----8-8-8-----|
D|-11-----11-9-----9-----9-|-----9-9-----9-9-9-----|
A|-------------------------|-----------------------|
E|----0-0------0-0---0-0---|-0-0-----0-0-------0-0-|


e|-----------------------|-----------------------|
B|-9-----9-7-----7-----5-|-----5-5-----5-5-5-----|
G|-9-----9-8-----8-----6-|-----6-6-----6-6-6-----|
D|-9-----9-9-----9-----7-|-----7-7-----7-7-7-----|
A|-----------------------|-----------------------|
E|---0-0-----0-0---0-0---|-0-0-----0-0-------0-0-|


e|-----------------------12-|-----12-------------------|
B|-10-----10-9-----9------9-|------9-----7-7-----7-----|
G|-11-----11-9-----9------9-|------9-----8-8-----8-----|
D|-11-----11-9-----9------9-|------9-----9-9-----9-----|
A|--------------------------|--------------------------|
E|----0-0------0-0---0-0----|-0-0----0-0-----0-0---0-0-|


e|-0----|
B|-0----|
G|-2----|
D|-2----|
A|-0----|
E|------|



*********************************** 
|  /  Slide up 
|  \  Slide down 
|  h  Hummer-on 
|  p  Pull-off 
|  b  Bend 
|  =  Hold Bend
| (n) Ghost Note
***********************************

            
            
Suggest correction
Creating personal tab
Creating personal tab
You can edit any tab online and save it as your Personal.

You can edit, replace or remove any tab part or add personal notes – all changes will be seen only by you.

Personal tabs can be accessed anytime from any device, even offline.
Learn more »
Give kudos to tab author, rate the tab!
1 2 3 4 5
comments
print report bad tab
guest
You may want to rate the tab now too:
select rating
Wanna post a correction for this tab? Suggest correction