Oops, an error
Loading. Please wait.

Bleed tab

61 views 1 this week
no commentswrite comment
1 2 3 4 5
3 more votes to show rating
add to favorites
×
Save as Personal and add changes to this tab that will be seen only by you. Learn more ›
×
You can save this tab as Personal to edit and correct it or add notes. All changes will be seen only by you. Learn more »
launch autoscroll
font size
0
reset
how to read this tab
guitar tuner
edit
Autoscroll
slow
fast
+/-
esc
set tempo
stop
CHARLS PART -


0:01-0:30 - Verse (Palm mute)
|------------------------------------------------------------------------|
|------------------------------------------------------------------------|
|------------------------------------------------------------------------|
|7-7-7-7-7-7-7-7-8--8--8--8--8--8--8--8--3-3-3-3-3-3-3-3-3-3-3-3-3-3-3-3-|
|8-8-8-8-8-8-8-8-10-10-10-10-10-10-10-10-5-5-5-5-5-5-5-5-5-5-5-5-5-5-5-5-|
|------------------------------------------------------------------------|

|----------------------------------------------------|
|----------------------------------------------------|
|----------------------------------------------------|
|7-7-7-7-7-7-7-7-2-2-2-2-2-2-2-2-3-3-3-3-3-3-3-3-3-3-|
|8-8-8-8-8-8-8-8-3-3-3-3-3-3-3-3-5-5-5-5-5-5-5-5-5-5-|
|----------------------------------------------------|

|------------------------------------------------------------------------|
|------------------------------------------------------------------------|
|------------------------------------------------------------------------|
|7-7-7-7-7-7-7-7-8--8--8--8--8--8--8--8--3-3-3-3-3-3-3-3-3-3-3-3-3-3-3-3-|
|8-8-8-8-8-8-8-8-10-10-10-10-10-10-10-10-5-5-5-5-5-5-5-5-5-5-5-5-5-5-5-5-|
|------------------------------------------------------------------------|

|----------------------------------------------------------------|
|----------------------------------------------------------------|
|----------------------------------------------------------------|
|7-7-7-7-7-7-7-7-2-2-2-2-2-2-2-2-3-3-3-3-3-3-3-3-3-3-3-3-3-3-3-3-|
|8-8-8-8-8-8-8-8-3-3-3-3-3-3-3-3-5-5-5-5-5-5-5-5-5-5-5-5-5-5-5-5-|
|----------------------------------------------------------------|

0:32-0:59 - Chorus

|------------------------------------------------------------------------|
|------------------------------------------------------------------------|
|------------------------------------------------------------------------|
|------------------------------------------------------------------------|
|-------10----10--8-7-------8----8--7-5----------------------------------|
|x-8--8-----8----------5--5----5--------0--0-x-0--0-x-0--0-10-12-0-15-14-|

|-------------------------------------------------------------------|
|-------------------------------------------------------------------|
|-------------------------------------------------------------------|
|-------------------------------------------------------------------|
|-------10----10--8-7-------8----8--7-5-----------------------------|
|-8--8-----8----------5--5----5--------0--0-x-0--0-x-0--0-3-3-0-3-2-|

|--------------------------------------------------------------------------|
|--------------------------------------------------------------------------|
|--------------------------------------------------------------------------|
|--------------------------------------------------------------------------|
|------10----10--8-7-------8----8--7-5-------------------------------------|
|- 8--8-----8----------5--5----5--------0--0-x-0--0-x-0--0-10-12-0-15-14---|

|------------------------------------------------------|
|------------------------------------------------------|
|------------------------------------------------------|
|------------------------------------------------------|
|------10----10--8-7-------8----8--7-5-7--7-7-7--7-7-7-|
|-8--8-----8----------5--5----5--------7--7-7-7--7-7-7-|


1:00-1:13 - Post Chorus Riff

|----------------------------------------|
|----------------------------------------|
|----------------------------------------|
|----------------------------------------| x3
|----------------------------------------|
|-0--15~-0--0--15~-0--0-18-17-15-17-15-12|


|-------------------------------|
|-------------------------------|
|-------------------------------|
|-------------------------------|
|-------------------------------|
|-0--15~-0--0--15~-0--15-14-14\~|

1:14-1:40 - Verse 2 (Palm mute)

|------------------------------------------------------------------------|
|------------------------------------------------------------------------|
|------------------------------------------------------------------------|
|7-7-7-7-7-7-7-7-8--8--8--8--8--8--8--8--3-3-3-3-3-3-3-3-3-3-3-3-3-3-3-3-|
|8-8-8-8-8-8-8-8-10-10-10-10-10-10-10-10-5-5-5-5-5-5-5-5-5-5-5-5-5-5-5-5-|
|------------------------------------------------------------------------|

|--------------------------------------------------------------------|
|--------------------------------------------------------------------|
|--------------------------------------------------------------------|
|7-7-7-7-7-7-7-7-2-2-2-2-2-2-2-2-3-3-3-3-3-3-3-3-3-3-3-3-3-3-3-3-3-3-|
|8-8-8-8-8-8-8-8-3-3-3-3-3-3-3-3-5-5-5-5-5-5-5-5-5-5-5-5-5-5-5-5-5-5-|
|--------------------------------------------------------------------|

|------------------------------------------------------------------------|
|------------------------------------------------------------------------|
|------------------------------------------------------------------------|
|7-7-7-7-7-7-7-7-8--8--8--8--8--8--8--8--3-3-3-3-3-3-3-3-3-3-3-3-3-3-3-3-|
|8-8-8-8-8-8-8-8-10-10-10-10-10-10-10-10-5-5-5-5-5-5-5-5-5-5-5-5-5-5-5-5-|
|------------------------------------------------------------------------|

|----------------------------------------------------------------|
|----------------------------------------------------------------|
|----------------------------------------------------------------|
|7-7-7-7-7-7-7-7-2-2-2-2-2-2-2-2-3-3-3-3-3-3-3-3-3-3-3-3-3-3-3-3-|
|8-8-8-8-8-8-8-8-3-3-3-3-3-3-3-3-5-5-5-5-5-5-5-5-5-5-5-5-5-5-5-5-|
|----------------------------------------------------------------|

1:43-2:09 Chorus 2 (Repeat)


2:10-2:27 - Post Chorus Riff 2

|----------------------------------------|
|----------------------------------------|
|----------------------------------------|
|----------------------------------------| x3
|----------------------------------------|
|-0--15~-0--0--15~-0--0-18-17-15-17-15-12|


|------------------------------------------------------------------------|
|------------------------------------------------------------------------|
|------------------------------------------------------------------------|
|-------------------------------------------------------------------0----|
|-------------------------------------------------------------------0----|
|-18-17-15-17-15-12-15-12-10-12-10-8-10-8-7-8-7-5-7-5-3-5-3-2-3-2-0-0----|

2:34- 2:51 BANGIN' RIFF 1
(|-----------------------------------------------------------|)
(|-----------------------------------------------------------|)
(|------------------Jack-------------------------------------|)
(|-----------------------------0--3--5--6-7--0-10-12-0-10-12-|)
(|-----------------------------0--3--5--6-7--0-10-12-0-10-12-|)
(|-0--3--5--6-7--0-5-3--0-3-2--0--3--5--6-7--0-10-12-0-10-12-|)
2:41
|------------------------------------------------------------|
|------------------------------------------------------------|
|------------------------------------------------------------|
|-0--3--5--6-7--0-5-3--0-3-2--0--3--5--6-7--0-10-12-0-10-12--|
|-0--3--5--6-7--0-5-3--0-3-2--0--3--5--6-7--0-10-12-0-10-12--|
|-0--3--5--6-7--0-5-3--0-3-2--0--3--5--6-7--0-10-12-0-10-12--|

|------------------------------------------------------------|
|------------------------------------------------------------|
|------------------------------------------------------------|
|-0--3--5--6-7--0-5-3--0-3-2--0--3--5--6-7--0-10-12\---------|
|-0--3--5--6-7--0-5-3--0-3-2--0--3--5--6-7--0-10-12\---------|
|-0--3--5--6-7--0-5-3--0-3-2--0--3--5--6-7--0-10-12\---------|

2:54-Solo

|-10-10-10--10-10-10---13-13-13--13-13-13---10-----------------------------------------------------------|
|-13b13b13b-13b13b13b--16b16b16b-16b16b16b--13b--13-10-13-10-13-10~----10--------------------------------|
|-------------------------------------------------------------------12----12~-10h12p10-12b---12-10-12p10-|
|--------------------------------------------------------------------------------------------------------|
|--------------------------------------------------------------------------------------------------------|
|--------------------------------------------------------------------------------------------------------|

|-------------------------------|
|-------------------------------|
|----10-------------------------|
|-12----12--10-12p10h12\--------|
|-------------------------------|
|-------------------------------|

3:09-3:34 - Chorus 3

(|--------------------------------------)---------------------------------|
(|--------------------------------------)---------------------------------|
(|--------------(Jack)------------------)---------------------------------|
(|--------------------------------------)---------------------------------|
(|-------10----10--8-7-------8----8--7-5)---------------------------------|
(|x-8--8-----8----------5--5----5-------)0--0-x-0--0-x-0--0-10-12-0-15-14-|

|-------------------------------------------------------------------|
|-------------------------------------------------------------------|
|-------------------------------------------------------------------|
|-------------------------------------------------------------------|
|-------10----10--8-7-------8----8--7-5-----------------------------|
|-8--8-----8----------5--5----5--------0--0-x-0--0-x-0--0-3-3-0-3-2-|

|-----------------------------------------------------------------------|
|-----------------------------------------------------------------------|
|-----------------------------------------------------------------------|
|-----------------------------------------------------------------------|
|------10----10--8-7-------8----8--7-5----------------------------------|
|-8--8-----8----------5--5----5--------0--0-x-0--0-x-0--0-10-12-0-15-14-|

|------------------------------------------------------|
|------------------------------------------------------|
|------------------------------------------------------|
|------------------------------------------------------|
|------10----10--8-7-------8----8--7-5-7--7-7-7--7-7-7-|
|-8--8-----8----------5--5----5--------7--7-7-7--7-7-7-|

3:35 - End BANGIN' RIFF 2

|------------------------------------------------------------|
|------------------------------------------------------------|
|------------------------------------------------------------|
|-0--3--5--6-7--0-5-3--0-3-2--0--3--5--6-7--0-10-12-0-10-12--|
|-0--3--5--6-7--0-5-3--0-3-2--0--3--5--6-7--0-10-12-0-10-12--|
|-0--3--5--6-7--0-5-3--0-3-2--0--3--5--6-7--0-10-12-0-10-12--|

|------------------------------------------------------------|
|------------------------------------------------------------|
|------------------------------------------------------------|
|-0--3--5--6-7----------------0--3--5--6-7-------------------|
|-0--3--5--6-7----------------0--3--5--6-7-------------------|
|-0--3--5--6-7--0-5-3~-0-3-2--0--3--5--6-7-------------------|

|----------------------------------------------------------------------------|
|----------------------------------------------------------------------------|
|----------------------------------------------------------------------------|
|---------------------------------0~10-12-0-10-12~---------------------------|
|---------------------------------0~10-12-0-10-12~---------------------------|
|-0-0-0-3-3-3-5-5-5-6-7~0-5-3~0-3-2~0-0-0-3-3-3-5-5-5-6-7~0~10-12-0-10-12~---|

|-----------------------------------------------------------------|
|-----------------------------------------------------------------|
|-----------------------------------------------------------------|
|-----------------------------------------------------------------|
|-0-0-0-3-3-3-5-5-5-6-7~0-5-3~0-3-2~0-0-0-3-3-3-5-5-5-3-0---------|
|-0-0-0-3-3-3-5-5-5-6-7~0-5-3~0-3-2~0-0-0-3-3-3-5-5-5-3-0---------|

            
            
Suggest correction
Creating personal tab
Creating personal tab
You can edit any tab online and save it as your Personal.

You can edit, replace or remove any tab part or add personal notes – all changes will be seen only by you.

Personal tabs can be accessed anytime from any device, even offline.
Learn more »
Give kudos to tab author, rate the tab!
1 2 3 4 5
comments
print report bad tab
guest
You may want to rate the tab now too:
select rating
Wanna post a correction for this tab? Suggest correction