Oops, an error
Loading. Please wait.

Part 2 tab

by Crywank
451 views 12 this week
3 commentsread comments
1 2 3 4 5
x 3
add to favorites
×
Save as Personal and add changes to this tab that will be seen only by you. Learn more ›
×
You can save this tab as Personal to edit and correct it or add notes. All changes will be seen only by you. Learn more »
launch autoscroll
font size
0
reset
how to read this tab
guitar tuner
edit
Autoscroll
slow
fast
+/-
esc
set tempo
stop
Author
Difficulty
[Part 1]
(watch this video to understand the ending strumming pattern - https://youtu.be/IIrQrtZnB0o)
e|------------|-----------|--------------------------------|
B|----------0-|---------0-|-0------0------0------0---------|
G|--------7---|-------4---|---11-----11-----11-----11------|  (x10)
D|------0-----|-----0-----|------0-----0------0------0-----|
A|----9-------|---5-------|-------12----12-----12-----12---|
E|--7---------|-3---------|---------10----10-----10-----10-|

[Part 2]
(watch this video to understand the strumming pattern - https://youtu.be/IIrQrtZnB0o)
e|-----------|----------|----------|----------|
B|--0--0-----|-0--0-----|-0--0-----|-0--0-----|
G|---6--6----|--6--6----|--6--6----|--4--4----|  (x2)
D|----0--0---|---0--0---|---0--0---|---0--0---|
A|-----7--7--|----5--5--|----7--7--|----5--5--|
E|------5--5-|-----7--7-|-----5--5-|-----3--3-|

[Part 3]
(watch this video to understand the ending strumming pattern - https://youtu.be/IIrQrtZnB0o)
e|------------|-----------|--------------------------------|
B|----------0-|---------0-|-0------0------0------0---------|
G|--------7---|-------4---|---11-----11-----11-----11------|  (x4)
D|------0-----|-----0-----|------0-----0------0------0-----|
A|----9-------|---5-------|-------12----12-----12-----12---|
E|--7---------|-3---------|---------10----10-----10-----10-|

            
            
Suggest correction
Creating personal tab
Creating personal tab
You can edit any tab online and save it as your Personal.

You can edit, replace or remove any tab part or add personal notes – all changes will be seen only by you.

Personal tabs can be accessed anytime from any device, even offline.
Learn more »
Give kudos to tab author, rate the tab!
1 2 3 4 5
comments
print report bad tab
3 comments total.
0 reply
wolfqueen11500 10 Apr 15, 2017 08:24 PM

Yay was looking for this a little while ago

0 reply
CrywankFan 292 Apr 16, 2017 07:32 AM

No problem! I was surprised no one else had made and posted a tab for this song before

0 reply
wolfqueen11500 10 Apr 17, 2017 06:55 PM

Yeah same. Thanks for doing it

guest
You may want to rate the tab now too:
select rating
Wanna post a correction for this tab? Suggest correction