Oops, an error
Loading. Please wait.

There All Is Aching chords

by Crywank
184 views 12 this week
no commentswrite comment
1 2 3 4 5
3 more votes to show rating
add to favorites
×
Save as Personal and add changes to this tab that will be seen only by you. Learn more ›
×
You can save this tab as Personal to edit and correct it or add notes. All changes will be seen only by you. Learn more »
launch autoscroll
font size
0
reset
transpose
0
reset
simplify chords
display chords
guitar tuner
edit
Autoscroll
slow
fast
+/-
esc
set tempo
stop
About this tab version
Chords instead of tabs for verse and chorus. Was this info helpful? Yes No
Strumming Is this strumming pattern correct? Yes No
Verse 200 bpm
1
&
2
&
3
&
4
&
5
&
6
&
Listen
An easy version of this tab https://tabs.ultimate-guitar.com/c/crywank/there_all_is_aching_tab.htm
Intro is the same, verse and chorus are simply chords and no outro. But it's really easy to play and sounds
pretty good.

[Intro](x5)
e|---------------------------------------------------|
B|-----------0------------0-----------0-----------0--|
G|-----0------------0-----------0-----------0--------|
D|---0-----0------0-----0-----0-----0-----0-----0----|
A|-7-----7-----10-----9-----0-----5-----2-----2------|
E|---------------------------------------------------|
   Wa-   king  pa-    nic   soon  drifts out
   Spout my    shit   im-   pen-  ding   doom,
   Fused in-   to     my    seat  re-    treat,

e|-------------------------------------------------------------------------|
B|-----------0-----------0-----------0-----------0-----------0----------0--|
G|-----0-----------0-----------0-----------0-----------0----------0--------|
D|---0-----0-----0-----0-----0-----0-----0-----0-----0-----0----0-----0----|
A|-5-----4-----0-----2-----------------------------------------------------|
E|-------------------------3-----3-----3-----3-----2-----2-----2----2------|
   I      in-  hale  the   tee-                    pot's
   impen- ding blaze dazed and                     con-
          from fears and   pro-                    cra-

[Verse]
Em
-stinate

Em            B7
Bubbling up inside,
       C
Find a way to calm my
Em             B7
Mind is set on dark,
         C
Roll and blaze, make me
Em            B7
Happy staring straight
          C
Dazed for days. I re-
Em            B7
turn to sober states,
        C           G
Just to face my comeuppance
       F#          Em
All my failures in abundance
G        F#              Em
Lazy oaf lazily blames a substance
   G                F#                Em
As if my pain makes this my reluctant indulgence
G            F#               Em
I am full of shit is my first utterance
G Em

            
            
Suggest correction
Creating personal tab
Creating personal tab
You can edit any tab online and save it as your Personal.

You can edit, replace or remove any tab part or add personal notes – all changes will be seen only by you.

Personal tabs can be accessed anytime from any device, even offline.
Learn more »
Give kudos to tab author, rate the tab!
1 2 3 4 5
comments
print report bad tab
guest
You may want to rate the tab now too:
select rating
Wanna post a correction for this tab? Suggest correction