Oops, an error
Loading. Please wait.

Ghosts Acoustic tab

version 2
version 2

Whole song

by Crywolf
658 views 3 this week
no commentswrite comment
1 2 3 4 5
3 more votes to show rating
add to favorites
×
Save as Personal and add changes to this tab that will be seen only by you. Learn more ›
×
You can save this tab as Personal to edit and correct it or add notes. All changes will be seen only by you. Learn more »
launch autoscroll
font size
0
reset
how to read this tab
guitar tuner
edit
Autoscroll
slow
fast
+/-
esc
set tempo
stop
Author
-------------------------------------------------------------------------------
                             Ghosts - Crywolf
-------------------------------------------------------------------------------
Tuning: standard
capo:5

[I tried and I'm sorry]

Lyrics:

Wait, turn around, don't walk through that door
There are verses left you don't know
Oh my hands are painted red

Wait, there's a locket here in my palm
It is broken like the song
I first sang the night you lied

  first part:
e|--3-0-------3-----0-----------------3-0-------3-----0-----------------3-0--|
B|1---------------------------------1---------------------------------1------|
G|---------------------------------------------------------------------------|
D|------2---2---2---2---2---2---2---2-----2---2---2---2---2---2---2---2-----2|
A|----0---0---3---3--(3)-(3)-(3)-(3)----0---0---3---3--(3)-(3)-(3)-(3)----0--|
E|-------------------(1)-(1)-(1)-(1)-------------------(1)-(1)-(1)-(1)-------|

e|----8~----3------------------0-1p0-----3-----------------------------------|
B|--------------------------1-3-------------------3--(1)-(1)-(1)-------------|
G|---------------------------------------------------------------------------|
D|--2---2---2---2---2---2---2------2---2---2---2----2---2---2---2------------|
A|0---3---3--(3)-(3)-(3)-(3)-----0---0---3---3---(3)-(3)-(3)-(3)-------------|
E|-----------(1)-(1)-(1)-(1)---------------------(1)-(1)-(1)-(1)-------------|

[  verse: repat till song end
         you don't have to play that first part]
e|-30|----3--0--------3-0---3--0--------3-0---3--0----------0-1p0-3-0-------3|
B|1--|---------------1-----------------1-----------------1-3-----------------|
G|---|-----------------------------------------------------------------------|
D|---|-2-2-2---2-2-2-----2-2-2---2-2-2-----2-2-2---2-2-2------2-2-2---2-2-2--|
A|---|0-0-3-3-3-3-3-3---0-0-3-3-3-3-3-3---0-0-3-3-3-3-3-3----0-0-3-3-3-3-3-3-|
E|---|--------1-1-1-1-----------1-1-1-1-----------1-1-1-1------------1-1-1-1-|

Stay the night and we'll meet our ghosts
They'll be drifting up through the floor
Stepping softly 'round the bed

Take my life right here in the sheets
The wall between you and me
Will melt away, but will it go?
Will it go?

[  bridge: yes it's literally the same thing but theres like a tiny change 
          seriously tho they're almost all the same
          but repeat it till the parts over
          or maybe the whole song
          this finishes the song
          your choice]
e|----3--0--------3-0---3--0--------3-0---3--0--------3-0--------------------|
B|---------------1-----------------1-----------------1-----------------------|
G|---------------------------------------------------------------------------|
D|-2-2-2---2-2-2-----2-2-2---2-2-2-----2-2-2---2-2-2-------------------------|
A|0-0-3-3-3-3-3-3---0-0-3-3-3-3-3-3---0-0-3-3-3-3-3-3------------------------|
E|--------1-1-1-1-----------1-1-1-1-----------1-1-1-1------------------------|

And your heart was held in your hips
When you gave to him with your lips
All the poems that we knew

And I told you that I was whole
But my heart turned off with your phone
And no tears will save you now
Where are you now?
Where are you now?
Where are you now?

************************************

| /   slide up
| \   slide down
| h   hammer-on
| p   pull-off
| ~   vibrato
| +   harmonic
| x   Mute note
| b   Bend
| pb  Pre-bend
| br  Bend release
| pbr Pre-bend release
| brb Bend release bend

************************************

            
            
Suggest correction
Creating personal tab
Creating personal tab
You can edit any tab online and save it as your Personal.

You can edit, replace or remove any tab part or add personal notes – all changes will be seen only by you.

Personal tabs can be accessed anytime from any device, even offline.
Learn more »
Give kudos to tab author, rate the tab!
1 2 3 4 5
comments
print report bad tab
guest
You may want to rate the tab now too:
select rating
Wanna post a correction for this tab? Suggest correction