Oops, an error
Loading. Please wait.

Rat Is Dead Rage bass

by CSS
861 views 1 this week
1 commentread comment
1 2 3 4 5
2 more votes to show rating
add to favorites
×
Save as Personal and add changes to this tab that will be seen only by you. Learn more ›
×
You can save this tab as Personal to edit and correct it or add notes. All changes will be seen only by you. Learn more »
launch autoscroll
font size
0
reset
guitar tuner
edit
Autoscroll
slow
fast
+/-
esc
set tempo
stop
Author
-----------------------------------------------------------------------------
			     Rat is Dead (Rage) - CSS
-----------------------------------------------------------------------------

Tabbed By : BubbleGum2010
e-mail: Tailz182@gmail.com

Tuning:Standard EADG



Intro
G|--------------------------------------------------------------------------|
D|-------2-0-0-0------------------------------------------------------------|
A|-0-3-3---------0-0-0-0-0-0-0-0--------------------------------------------|
E|--------------------------------------------------------------------------|

Verse
G|--------------------------------------------------------------------------|
D|-------2-0-0-0------------------------------------------------------------|
A|-0-3-3---------0-0-0-0-0-0-0-0--------------------------------------------|
E|--------------------------------------------------------------------------|


Pre-Chorus (She screamed so LOUD!)
G|--------------------------------------------------------------------------|
D|-------2-0-0-0------------------------------------------------------------|
A|-0-3-3---------0-0-0-0-0-0-0-0--------------------------------------------|
E|--------------------------------------------------------------------------|

Chorus
G|--------------------------------------------------------------------------|
D|--------------------------------------------------------------------------|
A|-3-3-3-5-5-5-7-7-7-9-9-9-9-12-10-10-10-9-9-9-5-5-5-5-5-5-5-5--------------|
E|--------------------------------------------------------------------------|

Bridge
G|--------------------------------------------------------------------------|
D|--------2-0-0-0-----------------------------------------------------------|
A|-0-3-3----------0-0-0-0-0-0-0-0-------------------------------------------|
E|--------------------------------------------------------------------------|

Bridge Pt.2 (Its that screaming bit)
G|--------------------------------------------------------------------------|
D|-----5-----7-----9-----11-------13----------------------------------------|
A|-3-3---5-5---7-7---9-9----11-11-------------------------------------------|
E|--------------------------------------------------------------------------|

Song Order

Intro x4
Verse x4
Pre-Chorus x4
Chorus x2
Intro x4
Verse x4
Pre-Chorus x4
Chorus x2
Bridge x4
Bridge pt.2 x4
Verse x4
Pre-Chorus x4
Chorus x4

This is my first tab... Please comment and rate about what you think!
Thank you!

            
            
Suggest correction
Creating personal tab
Creating personal tab
You can edit any tab online and save it as your Personal.

You can edit, replace or remove any tab part or add personal notes – all changes will be seen only by you.

Personal tabs can be accessed anytime from any device, even offline.
Learn more »
Give kudos to tab author, rate the tab!
1 2 3 4 5
comments
print report bad tab
1 comment total.
0 reply
StartTheMachine 31 Mar 21, 2011 11:19 PM

Nice but i think the main riff goes

G------------------------------------------------------|
D|-------2-0-0-0---------------------------------------|
A|-0-3-3---------0-0-0-0-0-0---------------------------|
E|---------------------------3-3-----------------------|

And the Second Part of the bridge has a slide then start over again

guest
You may want to rate the tab now too:
select rating
Wanna post a correction for this tab? Suggest correction