Oops, an error
Loading. Please wait.

Implacable tab

by Cuca
320 views 1 this week
no commentswrite comment
1 2 3 4 5
3 more votes to show rating
add to favorites
×
Save as Personal and add changes to this tab that will be seen only by you. Learn more ›
×
You can save this tab as Personal to edit and correct it or add notes. All changes will be seen only by you. Learn more »
launch autoscroll
font size
0
reset
how to read this tab
guitar tuner
edit
Autoscroll
slow
fast
+/-
esc
set tempo
stop
Ésta es una correción de la versión existente de Implacable, la estuve leyendo
y se escucha muy mal.

RIFF 1:

|C-C-Eb-Eb-F-F-B-C-C-Eb-F-Eb||

e|----------------------------||
b|----------------------------||  Esto se Repite
g|----------------------------||  4 veces durante
d|----------------------------||  la INTRO y los
a|-------6-6-8-8--------6-8-6-||  los versos.
E|---8-8---------7-8--8-------||

RIFF 2:

|Bb-Bb-C#-C#-Eb-Eb-A-G#-C-D-C|G-G-Bb-Bb-C-C-F#-F-|F-F#-G-||

e|---------------------------|-------------------|-------||
b|---------------------------|-------------------|-------||  Esto se toca
g|---------------------------|-------------------|-------||  sólo una vez
d|---------------------------|-------------------|-------||  al terminar
a|-------4-4-6-6------3-5-3--|------1-1-3-3------|-------||  el RIFF 1 y
E|---6-6---------5-4---------|--3-3---------2-1--|-1-2-3-||  solo en la intro.

Cuando empiezan los versos se toca esto

RIFF 3:

e|--------------------------|----------------||
b|--------------------------|----------------||  Es lo mismo pero
g|--------------------------|----------------||  Sin el (F-F-F#-G-|)
d|--------------------------|----------------||  del final.
a|------4-4-6-6------3-5-3--|------1-1-3-3---||
E|--6-6---------5-4---------|--3-3---------2-||

Cuando empieza la parte de 'Cuelga tu Jueguito' ( o 'Ponte jaboncito' en Imbañable)
Se toca esto:

   C5                 Bb5
   Cuelga tu jueguitoooo
g|-------------------|----||
d|-10----------------|-8--|| Así se repite hasta donde dice
a|-10----------------|-8--|| 'es un delito, es criminal'
E|-8-----------------|-6--|| Ahí empieza el solo.

No me sé el Solo pero es básicamente una escala de C, así que lo que yo hago
es improvisar con esa escala.
Pero casi obligatoriamente tienes que hacer como una entrada al terminar:

   Eb5    D5 C#5

g|------|--------||
d|-13---|-12-11--||
a|-13---|-12-11--||
E|-11---|-10-9---||

Y luego la parte lenta:

RIFF 4:

d|------------------------|| Ésto se toca cuantas veces sea
a|------6--6-6h8----------|| necesario hsta que el vocal diga
E|-8--8-----------7--7-7h8|| 'No,no,no,no,no,no,no,no,no,noo'

En ese pedasito se toca esto:

RIFF 5:

d|---------------------------|| Y luego se vuelve a tocar el
a|-------6-6-6-8-8-8---------|| RIFF 4 hasta donde empieza con
E|-8-8-8-------------7-7-7-8-|| 'eres imposible' ('Perfumada')

RIFF 6:

d|-------------------|-------------------|-----------------|
a|------4--4-4h6-----|------1--1-1h3-----|-----------------|
E|-6--6-----------4--|-3--3-----------1--|-1--1-3--1-1-2-3-|

Ahí va un silencio y se vuelven a repetir el RIFF 1 y 3 hasta el Final.´

Ojalá les guste, por lo menos a mi me gusta más que la anterior
 Dudas, comentarios, sugerencias y/o peticiones a twinmill_2@

Un saludo pa' la banda de jediondos imbañables de Guanatos

Sin Sostén Rules.

            
            
Suggest correction
Creating personal tab
Creating personal tab
You can edit any tab online and save it as your Personal.

You can edit, replace or remove any tab part or add personal notes – all changes will be seen only by you.

Personal tabs can be accessed anytime from any device, even offline.
Learn more »
Give kudos to tab author, rate the tab!
1 2 3 4 5
comments
print report bad tab
guest
Wanna post a correction for this tab? Suggest correction