Oops, an error
Loading. Please wait.

Reprobado tab

by Cuca
20 views 1 this week
no commentswrite comment
1 2 3 4 5
3 more votes to show rating
add to favorites
×
Save as Personal and add changes to this tab that will be seen only by you. Learn more ›
×
You can save this tab as Personal to edit and correct it or add notes. All changes will be seen only by you. Learn more »
launch autoscroll
font size
0
reset
how to read this tab
guitar tuner
edit
Autoscroll
slow
fast
+/-
esc
set tempo
stop
Esta rolita no la abian subido y sta chida se las dejo...
PS CREO Q TODA LA CANCION ESTA EN ...Eb sus4. es todo.
INTRO:

e]--------------------------------------------------]
B]--------------------------------------------------]
G]-X-10--8-7-8~--X-10-8-7-8~--X-10-8-7-8-8-7-8-7----]
D]----------------------------------------------8-8~]
A]--------------------------------------------------]
D]--------------------------------------------------]

Staba bien,
Staba mal.
si pasaba o no pasaba me dava igual,
yo la vi, y cai
en esos senos me perdi
fue dolor, no pase
el mudarme entre las garras de esa mujer
prometio que me amaria hasta la muerte
esa no fue mi suerte...

PART:2
e]---------------------------------------------]
B]---------------------------------------------]
G]---------------------------------------------]
D]-8--6-5-6-6-5-6-5-1-1-]-8--6-5-6-6-5-6-5-1-1-]
A]-8--6-5-6-6-5-6-5-1-1-]-8--6-5-6-6-5-6-5-1-1-]
D]-8--6-5-6-6-5-6-5-1-1-]-8--6-5-6-6-5-6-5-1-1-]


¡¡¡HEEEEEEE!!!

Terror al amor,
Tengo pavor al caer enamorado

Terror el peor
Yquedo reprobado en el amor

¡¡¡REPROBADO!!!

INTRO:

e]--------------------------------------------------]
B]--------------------------------------------------]
G]-X-10--8-7-8~--X-10-8-7-8~--X-10-8-7-8-8-7-8-7----]
D]----------------------------------------------8-8~]
A]--------------------------------------------------]
D]--------------------------------------------------]

SEGUIRE de aqui alla.
buscando placer pero no buelvoa caer
lo vivi y perdi
a madrasoz aprendi,
fue esa disco
fue tan cruel
todas las caricias de esa mujer
prometio que me amaria hasta la muerte esa no fue mi
¡¡¡suerte!!!

PART:2
e]---------------------------------------------]
B]---------------------------------------------]
G]---------------------------------------------]
D]-8--6-5-6-6-5-6-5-1-1-]-8--6-5-6-6-5-6-5-1-1-]
A]-8--6-5-6-6-5-6-5-1-1-]-8--6-5-6-6-5-6-5-1-1-]
D]-8--6-5-6-6-5-6-5-1-1-]-8--6-5-6-6-5-6-5-1-1-]


¡¡¡HEEEEEEE!!!

Terror al amor,
Tengo pavor al caer enamorado

Terror el peor
Yquedo reprobado en el amor

¡¡¡REPROBADO!!!

SOLO:
e]--------------]--------------]-11-9------------------]
B]----11--------]-----11-------]------11-9-------------]
G]-/10----8-7-8~]-/10----8-6---]-----------8-7---------]
D]--------------]------------8~]---------------8-6~----]
A]--------------]--------------]-----------------------]
D]--------------]--------------]-----------------------]

e]--------------]--------------]----------------]
B]----11--------]-----11-------]----------------]
G]-/10----8-7-8~]-/10----8-6---]-----/8~/10~---]
D]--------------]------------8~]-/8~------------]
A]--------------]--------------]----------------]
D]--------------]--------------]----------------]
             

            
            
Suggest correction
Creating personal tab
Creating personal tab
You can edit any tab online and save it as your Personal.

You can edit, replace or remove any tab part or add personal notes – all changes will be seen only by you.

Personal tabs can be accessed anytime from any device, even offline.
Learn more »
Give kudos to tab author, rate the tab!
1 2 3 4 5
comments
print report bad tab
guest
Wanna post a correction for this tab? Suggest correction