Oops, an error
Loading. Please wait.

La Maquina tab

822 views 12 this week
1 commentread comment
1 2 3 4 5
2 more votes to show rating
add to favorites
×
Save as Personal and add changes to this tab that will be seen only by you. Learn more ›
×
You can save this tab as Personal to edit and correct it or add notes. All changes will be seen only by you. Learn more »
launch autoscroll
font size
0
reset
how to read this tab
guitar tuner
edit
Autoscroll
slow
fast
+/-
esc
set tempo
stop
Aquí les dejo la tablatura de maquina, es recontra fácil asi
q es imposible q no la saken ya weno les estoy dejando tmb el
bajo junto con las tablaturas ok? Uds ya vean como lo leen,
pero la cosa es q el bajo y la guitarra, van al mismo tiempo,
x siaca no son acordes, no hay en esta cancion, lo q dice,
son 5tas, na mas

G |--------------4/5/4-0-4-0-4-0--|
D |--4-4-0-4-4-0-4/5/4-0-4-0-4-0--|  (x4)
A |--4-4-0-4-4-0-2/3/2-0-2-0-2-0--|
E |--2-2-0-2-2-0------------------|

A |--------------2/3/2-0-2-0-2-0--|
E |--2-2-0-2-2-0------------------|  (x4)

F#5               F#5
Yo soy la mqkina q t da de comer
    F#5                  F#5
Q t viste, q t peina, q t hace sentir bien
         F#5                   F#5
Yo yo yo yo soy el mostro q t lleva a trabajar
       F#5                  F#5           G#5
Q t engrie, q t engorda, q t hace vomitar
                        G5
Y ahora tu q vas a hacer, acaso vas a responder

D |-4-4---------------------|
A |-4-4-----0-----1-----2-0-| (x4)
E |-2-2-2-2---2-2---2-2-----|

A |---------0-----1-----2-0-| (x4)
E |-2-2-2-2---2-2---2-2-----|

F#5                  F#5                   F#5
Yo soy la música q tienes q escuchar, q consumes
                  F#5
Y fabricas desde abajo y para atrás
         F#5                   F#5
Yo yo yo yo soy el dial q tu tienes q llenar
      F#5                  F#5             G#5
La barriga q te ajusta y q t hace sospechar
                        G5
Y ahora tu q vas a hacer, acaso vas a responder

Aquí tienes q hacer un ?slide down? desde Em5
(en el 12vo traste) hasta F#5
Es facil, y de ahí vuelves al intro,
el bajo tmb hace lo mismo, pero solo en la 6ta cuerda

G |--------------4/5/4-0-4-0-4-0--|
D |--4-4-0-4-4-0-4/5/4-0-4-0-4-0--|  (x4)
A |--4-4-0-4-4-0-2/3/2-0-2-0-2-0--|
E |--2-2-0-2-2-0------------------|

A |--------------2/3/2-0-2-0-2-0--|
E |--2-2-0-2-2-0------------------|  (x4)


D |-11-11/12/11-9-9--2-4-7-4-|     |-2-4-7-4-|
A |------------------2-4-7-4-|(x2) |-2-4-7-4-|
E |------------------0-2-5-2-|     |-0-2-5-2-|

E |-5---5/7/5---2-2--0-2-5-2-|(x2) |-0-2-5-2-|

Luego un rapido cambio y regresas a esto,
pero solo entra el bajo

A |---------0-----1-----2-0-| (x2)
E |-2-2-2-2---2-2---2-2-----|

Aki ya entran los dos, pero, la guitarra se tiene
q nivelar, el bajo no para, y tienen q entrar al mismo tiempo

A |---------0-----1-----2-0-| (x2)
E |-2-2-2-2---2-2---2-2-----|

D |-4-4---------------------|
A |-4-4-----0-----1-----2-0-| (x2)
E |-2-2-2-2---2-2---2-2-----|


D |-11-11/12/11-9-9--2-4-7-4-|     |-2-4-7-4-|
A |------------------2-4-7-4-|(x2) |-2-4-7-4-|(x2)
E |------------------0-2-5-2-|     |-0-2-5-2-|

E |-5---5/7/5---2-2--0-2-5-2-|(x2) |-0-2-5-2-|(x2)


G |--------------4/5/4-0-4-0-4-0--|
D |--4-4-0-4-4-0-4/5/4-0-4-0-4-0--| (x2)
A |--4-4-0-4-4-0-2/3/2-0-2-0-2-0--|
E |--2-2-0-2-2-0------------------|

A |--------------2/3/2-0-2-0-2-0--|
E |--2-2-0-2-2-0------------------| (x2)

En est aparte entran al mismo tiempo, bajo y guitarra,
con el mismo ritmo, la guitarra es un poco mas rapida

e |-9-11-11-9-11-9-9-11-11-12-11-12-11-9-|(X4)

A |--------------2/3/2-0-2-0-2-0--|
E |--2-2-0-2-2-0------------------|  (x4)

FINAL:                                              desde aki solo vayan
                                                    sacando los dedos, no
                                                    token, solo bajen lento
D |-2-4-7-4-|     aki se termina con un    |-2-4-7-4-/-3-/-2-/-1-/-0-|
A |-2-4-7-4-|(x2) slide down muy lento     |-2-4-7-4-/-3-/-2-/-1-/-0-|
E |-0-2-5-2-|     con la cancion lo sacan  |-0-2-5-2-/-1-/-0---------|
                  Pero va asi
E |-0-2-5-2-|(x2)                          |-0-2-5-2-----------------|

Me escriben a mi correo ps, yo les mando mas canciones,
es carlos_12_92_5@ mejor si son xiks jaja

            
            
Suggest correction
Creating personal tab
Creating personal tab
You can edit any tab online and save it as your Personal.

You can edit, replace or remove any tab part or add personal notes – all changes will be seen only by you.

Personal tabs can be accessed anytime from any device, even offline.
Learn more »
Give kudos to tab author, rate the tab!
1 2 3 4 5
comments
print report bad tab
1 comment total.
0 reply
alvaromurosotel 12 Nov 09, 2015 05:00 PM

Creo que hay algunos errores como despues del primer verso. Bueno intentare hacer una tab corrigiendo esos errores. xXD XD XD.

guest
Wanna post a correction for this tab? Suggest correction